Acordes de Guitarra » C »Carlos Mejía Godoy » La mora limpia (Tab)

La mora limpia
Carlos Mejía Godoy

  • Tablatura
    Esto es como el segundo Himno Nacional
    para los y las Nicaragüenses, lo que la gente no sabe
    es que el compositor de esta linda melodia se llama Justo Santos
    y es una canción con la cual gano un concurso de compositores
    locales allá por los años 30.
    
    Aqui les va el Tab no se molesten por letra porque no tiene!
    
    Part I
    |--------------------0-0-0-0--0-----0--2--0-----0--0-0-0-0-------|
    |--------------0--1--1-1-1-1-----4-----------4-----0-0-0-0-------|
    |--------0--2--------2-2-2-2-----------------------0-0-0-0-------|
    |--2--4--------------2-2-2-2-----------------------2-2-2-2-------|
    |--------------------0-0-0-0-----------------------2-2-2-2-------|
    |--------------------0-0-0-0-----------------------0-0-0-0-------|
    
    |--0-----0--3--2--0-----2-----------------------------------0----|
    |-----4--------------4--------1-----0--------------------0--0----|
    |--------------------------2-----0-----2|--0|---------0-----0----|
    |----------------------------------------------4|--2-------------|
    |----
  • +
    ¡Colabora con nosotros!
    Envíanos tu versión de esta canción





© LaCuerda.net · aviso legal · privacidad · contacto