Acordes de Guitarra » C »Carlos Baute » Colgando en tus manos (Tab)

Colgando en tus manos
Carlos Baute

Letras, Acordes y Tabs para Guitarra, Bajo y Ukulele

  • --1--
    --1--
    --3--
    --3--
    --1--
    --X--
    (INTRO PUNTEO) FA  DO  REm  LA#  DO
    
    Para el "punteo" se empieza en la 5ª cuerda y vas bajando,
    es muy fácil y queda muy bien.
    
          FA           DO     REm       LA#   DO      FA
    ---------1----------0----------1----------------------1----------
    ---------1----------1-------3--3----------------------1----------
    ----2----2-----0----0-----2----2-----0----0------2----2----------
    ---2-----3----2-----2---0------0----3----2------2-----3----------
    --3------3---3------3----------X---3----3------3------3----------
    ---------1----------X----------X----------------------1----------
    
    
    
  • (INTRO PUNTEO) FA# DO# RE#m SI   DO#
    
    FA#                 DO#                   RE#m
    Quizá no fue coincidencia encontrarme contigo,
            SI      DO#           FA#
    Tal vez esto lo hizo el destino.
    FA#       DO#                     RE#m
    Quiero dormirme de nuevo en tu pecho
          SI        DO#            FA#
    Y después me despierten tus besos.
    
    
    FA#         DO#            RE#m
    Tu sexto sentido sueña conmigo
           SI         DO#       FA#
    Sé que pronto estaremos unidos.
    FA#             DO#                RE#m
    Esa sonrisa traviesa que vive conmigo
            SI         DO#         RE#m
    Sé que pronto estaré en tu camino.
    
  • (INTRO PUNTEO) FA  DO  REm  LA#  DO
    
    FA                  DO                    REm
    Quizá no fue coincidencia encontrarme contigo,
            LA#     DO            FA
    Tal vez esto lo hizo el destino.
    FA        DO                      REm
    Quiero dormirme de nuevo en tu pecho
          LA#       DO             FA
    Y después me despierten tus besos.
    
    
    FA          DO             REm
    Tu sexto sentido sueña conmigo
           LA#        DO        FA
    Sé que pronto estaremos unidos.
    FA              DO                 REm
    Esa sonrisa traviesa que vive conmigo
            LA#        DO          REm
    Sé que pronto estaré en tu camino.
    
  • e---------|------4--|------6--|------------------|
    B------2--|------6--|------7--|-----4-------6----|
    G------3--|----6----|----8----|-----4-------6----|
    D----4----|---6-----|---8-----|---4---4---6---6--|
    A---4-----|--4------|--6------|--2-------4-------|
    E--2------|---------|---------|------------------|
    
    
    e--------------------------4---------------------|
    B------2-------------------6---------------------|
    G------3-----------------6-----------------------|
    D----4------------------6------------------------|
    A---4------------------4-------------------------|
    E--2---------------------------------------------|
          Quiza no fue coincidencia encontrarme contigo
    
    e------6----|--------------------|--------------|
    B------7----|-------4-------6----|-----------2--|
    G----8------|-------4-------6----|-----------3--|
    D---8-------|-----4---4---6---6--|---------4----|
    
  • +
    ¡Colabora con nosotros!
    Envíanos tu versión de esta canción
  • Tutorial
    HD
    Como tocar Colgando en Tus Manos en guitarra Carlos Baute guitarra acústica y criolla
    10:00
  • Tutorial
    HD
    Como tocar Colgando en tus Manos en Guitarra Acustica (HD)
    Tutorial Acordes
    5:05
  • Tutorial
    HD
    Colgando en tus manos ACORDES para guitarra COMO TOCAR
    2:50
  • Tutorial
    Colgando en tus manos - Carlos Baute , Martha Sanchez, Como tocar en guitarra
    4:22

Letra de Colgando en tus manos
Para el "punteo" se empieza en la 5ª cuerda y vas bajando,
es muy fácil y queda muy bien.
Quizá no fue coincidencia encontrarme contigo,
Tal vez esto lo hizo el destino.
Quiero dormirme de nuevo en tu pecho
Y después me despierten tus besos.
Tu sexto sentido sueña conmigo
Sé que pronto estaremos unidos.
Esa sonrisa traviesa que vive conmigo
Sé que pronto estaré en tu camino.
Sabes q estoy colgando en tus manos
Así q no me dejes caer
Sabes que estoy colgando en tus manos.
Te envió poemas de mi puño y letra
Te envió canciones de 4.40
Te envió las fotos cenando en Marbella
Y cuando estuvimos por Venezuela
Y así me recuerdes y tengas presente
Que mi corazón esta colgando en tus manos
Cuidado, cuidado que mi corazón esta colgando en tus manos.
No perderé la esperanza de hablar contigo,
No me importa que dice el destino.
Quiero tener tu fragancia conmigo,
Y beberme de ti lo prohibido.
Sabes q estoy colgando en tus manos
Así q no me dejes caer
Sabes que estoy colgando en tus manos.
Te envió poemas de mi puño y letra
Te envió canciones de 4.40
Te envió las fotos cenando en Marbella
Y cuando estuvimos por Venezuela
Y así me recuerdes y tengas presente
Que mi corazón esta colgando en tus manos
Cuidado, mucho cuidado,
No perderé la esperanza de estar contigo
Cuidado, mucho cuidado
Quiero beberme de ti todo lo prohibido
Cuidado, mucho cuidado
Quiero amanecer besando toda…
Toda tu ternura mi niña mi vida te necesito
Te envió poemas de mi puño y letra
Te envió canciones de 4.40
Te envió las fotos cenando en Marbella
Y cuando estuvimos por Venezuela
Y así me recuerdes y tengas presente
Que mi corazón esta colgando en tus manos
Cuidado, cuidado que mi corazón esta colgando en tus manos.




[Colgando en tus manos chords][Colgando en tus manos cifra]
© LaCuerda.net · aviso legal · privacidad · es · en · pt · contacto