Acordes de Guitarra » C »Carlos Barocela » Tu nombre en la arena (Tab)

Tu nombre en la arena
Carlos Barocela

Letras, Acordes y Tabs para Guitarra, Bajo y Ukulele

  • E-------------6-------|---6-------8------------
    A---------------8-----|-------------0----------
    D-----------------8---|---------------10-------
    G-------------------0-|------------------0-----
    B---------------------|------------------------
    e---------------------|------------------------
    
    
             Laa, lalala...
    E--------8--------7----------------------------
    A---------------------9------------------------
    D------------------------9---------------------
    G---------------------------7------------------
    B-------------------------------------0--------
    e----------------------------------------------
             Surge tu voz de la noche callada
    
                 Laa,lala   LA...
    E------------7----------6----------------------
    A-----------------------------8----------------
    
  •             Am                 E
    Mientras el mar besa una playa ajena,
                E7                     Am
    yo busco en vano tu nombre entre la arena.
                F
    Yo busco en vano la luz de tu verano,
        G7                           C
    y aquellas noches anchas bajo el cielo,
              Dm                      Am
    cuando tu piel se acostumbró a mi mano
         F                        E
    y mi frente a la sombra de tu pelo.
    
          A
    Y hay tanta adolescencia apresurada,
      A7                    Dm
    y tanta soledad arrepentida,
                                         Am
    que estás aquí, y aunque no estés conmigo
                                   E
    
  • +
    ¡Colabora con nosotros!
    Envíanos tu versión de esta canción

Letra de Tu nombre en la arena
Laa, lalala...
Surge tu voz de la noche callada
Nombrándome las cosas que nombraba
(El ritmo es igual al del solo de guitarra)
Mientras el mar
besa una playa ajena
Yo busco en vano
tu nombre entre la arena
Yo busco en vano
La luz de tu verano
Y aquellas noches
anchas bajo el cielo
Fa#/Gb
Cuando tu piel
se acostumbro a mi mano
Y mi frente
a la sombra de tu pelo
Y hay tanta adolescencia
apresurada
Y tanta soledad
arrepentida
Que estas aquí
Y aunque no estas conmigo
Vuelvo a encontrar
tu corazón amigo
Junto a las cosas
que toco tu vida
Lalalala... Lalala...
Lalalala lalala
Y hasta en el cielo
la cruz del sur evoca
Antiguas alegrias
que se han muerto
Fa#/Gb
Y el faro al sur
es una estrella rota
que numbra la vigilia
de algún puerto
Y hay tanta adolescencia
apresurada :Bis
(Al final del solo de guitarra,
se termina disminuyendo el ritmo)
8 6 10 8 8 6 12 10
4 2 8 6 8 6 8 6
'Esta canción se la dedico a Wendy Andrade Morato. El amor de mi vida Por los días
que viví contigo, y por los que he vivído sin tí.'
Esperándo que algún día, estemos juntos nuevamente, y esta vez para siempre.
'Wendy, solo quiero decirte con esta canción que te amo.Que nunca he dejado de amarte'
Que eres y serás por siempre...Como un sueño. Finalmente... mi sueño hecho realidad.

Video de Tu nombre en la arena
[]




[Tu nombre en la arena chords][Tu nombre en la arena cifra]
© LaCuerda.net · aviso legal · privacidad · es · en · pt · contacto