Acordes de Guitarra » C »Los Carabajal » Dejame Que Me Vaya (Tab)

Dejame Que Me Vaya
Los Carabajal

  • Letra y Acordes
       LA                                     RE           
    1|------8---8-8-7-5--------8---8-8-7-5----------10----10-10-8-7----------
    2|-----------------------------------------------------------------------
    3|-7--9---9-----7-5---7--9---9-----7-5----9--10----10-------8-7----------
    4|-----------------------------------------------------------------------
    5|-----------------------------------------------------------------------
    6|-----------------------------------------------------------------------
       LA    MI7    LA
    1|-4-5-7-10-8-7-5--------------------------------------------------------
    2|-----------------------------------------------------------------------
    3|-4-5-7-10-9-7-5--------------------------------------------------------
    4|-----------------------------------------------------------------------
    5|-----------------------------------------------------------------------
    6|-----------------------------------------------------------------------
    
    LA
        Aunque me duela el alma
    RE    
        y se me quiebre el pecho
        dejame que me vaya
    
  • +
    ¡Colabora con nosotros!
    Envíanos tu versión de esta canción

Letra de Dejame Que Me Vaya
Aunque me duela el alma
y se me quiebre el pecho
dejame que me vaya
a olvidarme tus besos
dejame que me vaya
a olvidarme tus besos.
Introducción:
A donde iré no importa
no intentes detenerme
total sabes de sobra
que en vano fue quererte.
Total sabes de sobra
que en vano fue quererte.
Introducción:
No creo en tus promesas
no me hagas juramentos
ni bien tu voz la suelta
ya se la lleva el viento.
Ni bien tu voz la suelta
ya se la lleva el viento.
Siempre en el corazón
guardo una chacarera
dejame que me vaya
y que con ella muera.
Dejame que me vaya
y que con ella muera.
Aunque me duela el alma
tan solo pienso en irme
no quiero estar mañana
crucificado y triste.
No quiero estar mañana
crucificado y triste.
Introducción:
Del hueco de tus manos
blancas como el azucar
bebí los desengaños
probé las amarguras.
Bebí los desengaños
probé las amarguras.
Introducción:
La miel que vos me diste
no estaba hecha de flores
de algún rencor hiciste
la miel de tus amores.
De algún rencor hiciste
la miel de tus amores.
Siempre en el corazón...



© LaCuerda.net · aviso legal · privacidad · contacto