Acordes de Guitarra » C »Capitán Memo » He-man y los amos del universo (Tab)

He-man y los amos del universo
Capitán Memo

Letras, Acordes y Tabs para Guitarra, Bajo y Ukulele

  •  MI... SOL-LAm
            HE MAN
    
     SOL-LAm              RE      LAm  SOL LAm)        (RE-LAm-SOL-LAm)
      HE MAN                            HE MAN                  HE MAN
     E---12------------12-10-----------------------------------
     B-------10-----13-------13-12-10------10-------------------
     G---------------------------------12----------11-9----9---
     D-----------------------------------------12-------12-----
     A---------------------------------------------------------
     E---------------------------------------------------------
    
        LAm         SOL                    SOL
     E---12-10----12-----------12-10---------------
     B---------13----10-----13-------13-12-10------
     G-----------------------------------------12--
     D---------------------------------------------
     A---------------------------------------------
     E---------------------------------------------
    
    
  • +
    ¡Colabora con nosotros!
    Envíanos tu versión de esta canción

Letra de He-man y los amos del universo
HE MAN
HE MAN HE MAN HE MAN
EL UNIVERSO YA ESTÁ PROTEGIDO
POR EL PODER DE GRAYSKULL...
CON SECRETOS PODERES DESTELLA UN CASTILLO
HE-MAN LUCHARÁ HASTA EL FINAL...
HE MAN... HE MAN...
HE MAN... HE MAN...
TENIENDO A SU LADO LA MÁGICA ESPADA
Y AMIGOS QUE NO FALLARÁN...
LAS FUERZAS MALVADAS, QUERRÁN LIQUIDARLO
Y NUNCA DESCANSARÁN...
NUESTRO CASTILLO NOS DA FORTALEZA
Y A ETERNIA PROTEGERÁ...
JUNTO A GRANDES AMIGOS, UNIDOS LUCHANDO,
A SKELETOR DERROTARÁ... HE MAN...
HE MAN
HE MAN HE MAN HE MAN
EL UNIVERSO YA ESTÁ PROTEGIDO
POR EL PODER DE GRAYSKULL...
CON SECRETOS PODERES DESTELLA UN CASTILLO,
HE-MAN LUCHARÁ HASTA EL FINAL... HE MAAAAAN...
HE MAN... HE MAN...
TENIENDO A SU LADO LA MÁGICA ESPADA
Y AMIGOS QUE NO FALLARÁN...
LAS FUERZAS MALVADAS, QUERRÁN LIQUIDARLO
Y NUNCA DESCANSARÁN... HE MAAAAAN...
HE MAN... HE MAN...
_______________________________________________
| |
| Aquí te van algunas indicaciones básicas para |
| tocar la canción: |
|_______________________________________________|
| |
| Para que el tema suene la raja te recomiendo |
| ejecutar el acorde y los cambios de acorde |
| en el mismo momento en que aparecen, por eso |
| logré que la ubicación de cada acorde sea la |
| precisa, tal como puse los acordes sobre cada |
| sílaba de cambio y sobre cada punteo. |
|_______________________________________________|
_______________________
| |
| Universal - Americana |
|_______________________|
Los números corresponden al
traste de la guitarra donde
se pulsa la cuerda señalada,
la letra X significa que no
se pulsa la cuerda indicada.
Hola mi nombre es Rodrigo, soy chileno. Espero que les guste la
transcripción del tema. Saludos a todo quien viera alguna vez esta
emocionante serie. Chao.
+EN MEMORIA DE ANDREITA SUSANA MUÑOZ ALARCÓN+
(*Abril 20,1989 - Diciembre 10,2004+)
*Que el Señor te tenga consigo hermanita*
*Que el Señor les Bendiga*
ENERO 2008 ...Rodrigo




[He-man y los amos del universo chords][He-man y los amos del universo cifra]
© LaCuerda.net · aviso legal · privacidad · es · en · pt · contacto
DINAMICO