Acordes de Guitarra » C »Canseco » Todavía te alcanzo a ver (Tab)

Todavía te alcanzo a ver
Canseco

Letras, Acordes y Tabs para Guitarra, Bajo y Ukulele

  • Intro: Cm, F, A#, Gm
           Cm, F, A#
                  1,2,3
    
    Gm                           Cm
     Nunca he sido bueno al olvidar
    F                               A#
     Pero si tu lo pides pues lo puedo intentar,
    Gm                     Cm
     Hoy stas pidiendo mi amistad
    F                               A#
     te juro que hoy no puedo, pero un dia asi sera.
    
    
    
    Cm        F          A#
    Vamos un rato a caminar
             Gm
    que hoy no puedo sin ti
    Cm            F            A#
    
  • Intro: Cm, A#
    
    1,2,3...
    
    Cm                          A#
    Nunca he sido bueno al olvidar
    Cm                           A#
    Pero si tu lo pides pues lo puedo intentar.
    Cm                          A#
    Hoy stas pidiendo mi amistad
    Cm                       A#
    te juro que hoy nu puedo, pero un dia asi sera.
    
    
    Coro:(escuchen bien la cancion para que hagan bien los cambios)
    
    Cm         F         A#
    Vamos un rato a caminar
             Gm
    que hoy nu puedo sin ti
    
  • Cm / F / A# /Gm
    
    D------8--9-- 00:07
    A--10--------
    E------------
    
    o tambien pueden tocarlo así -->
    
    D-----------
    A-----1--3--
    E--3--------
    
    ************************************************
    
    Cm / F / A#
    
    D---------------- 00:14... 1,2,3....
    A--3--1-----1-3--
    E--------3-------
    
    
  •     Hola ;) ps aqui les tengo otra tab que
          para mi gusto esta bastante bien.
    
       DEDICADA MUY ESPECIALMENTE A BRENDA
    ***************************************************************
    
        INTRO   0:00
    
    G--------------------------------------
    D--------------------------------------
    A-3--3-3-3----------1--1-1-1-----------
    E----------1--1-1-1-----------3--3-3-3-
    
    G----------------------------------------
    D----------------------------------------
    A-3--3-3-3----------1--1-1-1-1--1-1-1----
    E----------1--1-1-1-------------------3*-
    
        VERSO 1   0:31
    
        Hoy estas pidiendo mi amistad...
    G--------------------------------
    D--------------------------------
    A----------3*-----------------1*-
    E-3*----------------1*-----------
    
        CORO 1  0:46
    
        Vamos un rato a caminar...
    G--------------------------------------
    D--------------------------------------
    A-3--3-3-6----------1--1-1-3-----------  X3
    E----------1--1-1-5-----------3--3-3-6-
    
        Todavia te alcanzo a ver.
    G-------------------------
  • +
    ¡Colabora con nosotros!
    Envíanos tu versión de esta canción

Letra de Todavía te alcanzo a ver
1,2,3...
Nunca he sido bueno al olvidar
Pero si tu lo pides pues lo puedo intentar.
Hoy stas pidiendo mi amistad
te juro que hoy nu puedo, pero un dia asi sera.
Vamos un rato a caminar
que hoy nu puedo sin ti
Hay noches que yo mataria
por tus besos mi amor!!!
Abriste tus alas y al volar
te fuiste lejos pero...
Todavia te alcanzo a ver!!!
Ya hize mis maletas
ya me voy
Te espero yo contento
y tu nu sabes donde estoy.
Me subia al avion sin ver atras
y nu te encontre en el cielo
Ya nu quiero regresar...
Vamos un rato a caminar
que hoy nu puedo sin ti
Hay noches que yo mataria
por tus besos mi amor!!!
Abriste tus alas y al volar
te fuiste lejos pero...
Todavia te alcanzo a ver!!!
Si tu quieres regresar,
si te despiertas y me extrañas...
Deja tu orgullo y ven ami.
Y si lo pierdes todo
y tus alas se rompen y nu puedes volar mas
siempre podras caer en mi!!!
TE AMU... REGRESA PORFA




[Todavía te alcanzo a ver chords][Todavía te alcanzo a ver cifra]
© LaCuerda.net · aviso legal · privacidad · es · en · pt · contacto
DINAMICO