Acordes de Guitarra » C »Candy 66 » Solo (Tab)

Solo
Candy 66

Letras, Acordes y Tabs para Guitarra, Bajo y Ukulele

  • /        = deslizar hacia arriba
    \        = deslizar hacia abajo
    h        = hammer on
    p        = pull off
    b        = bending
    v        = vibrato (tremolo or with left hand)
    x        = Muted string string
    P.M      = palm muting
    ^                      =  armonicos
    ..       = dejar sonar
    
    Intro: distorsión
    
    D|---------------------------------------------|
    A|---------------------------------------------|
    F|---------------------------------------------|
    C|---1-1-1--1-1\8-8-8\9-9-9--------------------|
    G|---1-1-1--1-1\8-8-8\9-9-9--------------------|
    C|---1-1-1--1-1\8-8-8\9-9-9--------------------|
    
    Verso
    D|---------------------------------------------|
    A|---------------------------------------------|
    F|---------------------------------------------|
    C|---------------------------------------------|
    G|---------------------------------------------|
    C|-9-9-8--9-9-8--9-9-8-------------------------|
    ………p.m…………p.m…………p.m…
    D|-----------------------------------
  • +
    ¡Colabora con nosotros!
    Envíanos tu versión de esta canción






[Solo chords][Solo cifra]
© LaCuerda.net · aviso legal · privacidad · es · en · pt · contacto
DINAMICO