Acordes de Guitarra » C »Canciones Infantiles » Navidad (Tab)

Navidad
Canciones Infantiles

Letras, Acordes y Tabs para Guitarra, Bajo y Ukulele

  • esta es la version perfecta de esta cancion:
    cualquier cosa escribi a luciano_1993@hotmail.com
    
    
    e-0-0-0--0-0-0--0-3-----0-------------
    b-------------------1-3---------------
    g-------------------------------------
    d-------------------------------------
    a-------------------------------------
    e-------------------------------------
    
    e-1-1-1--1-0-0--0-----0---3-----------
    b-----------------3-3---3-------------
    g-------------------------------------
    d-------------------------------------
    a-------------------------------------
    e-------------------------------------
    
    e-0-0-0--0-0-0--0-3-----0-------------
    b-------------------1-3---------------
    g-------------------------------------
    d-------------------------------------
    a-------------------------------------
    e-------------------------------------
    
    e-1-1-1--1-0-0--3-3-1-----------------
    b---------------------3-1-------------
    g-------------------------------------
    d-------------------------------------
    a------------
  • e-------------------------------------
    b-0-0-0--0-0-0--0-3-----0-------------
    g-------------------0-2---------------
    d-------------------------------------
    a-------------------------------------
    e-------------------------------------
    
    e-------------------------------------
    b-1-1-1--1-0-0--0-----0---3-----------
    g-----------------2-2---2-------------
    d-------------------------------------
    a-------------------------------------
    e-------------------------------------
    
    e-------------------------------------
    b-0-0-0--0-0-0--0-3-----0-------------
    g-------------------0-2---------------
    d-------------------------------------
    a-------------------------------------
    e-------------------------------------
    
    e-------------------------------------
    b-1-1-1--1-0-0--3-3-1-----------------
    g---------------------2-0-------------
    d-------------------------------------
    a-------------------------------------
    e-------------------------------------
    
    e-------------------------------------
    b---0----------0-----
  • Es un tab muy sencillo pero es 100% correcto, se los aseguro....
    Simplemente kise regresarle un poko de lo mucho que me a
    dado este sitio. Aki Va
    
    e------5-3-1---------5-3-1----------6-5-3----8-8-6-3-5-
    B------------1-------------3--3-3---------5------------
    G--5-5----------5-5------------------------------------
    D------------------------------------------------------
    A------------------------------------------------------
    E------------------------------------------------------
    
    e------5-3-1--------5-3-1---------6-5-3-8-8-8--8-10-8-6-3-1-
    B------------1-------------3--3-3---------------------------
    G--5-5----------5-5-----------------------------------------
    D-----------------------------------------------------------
    A-----------------------------------------------------------
    E-----------------------------------------------------------
    
    e--5-5-5--5-5-5--5-8-1-3-5---6-6-6--6-6-5-5--5-5-5-3-3-1-3-8-
    B------------------------------------------------------------
    G------------------------
  • +
    ¡Colabora con nosotros!
    Envíanos tu versión de esta canción






[Navidad chords][Navidad cifra]
© LaCuerda.net · aviso legal · privacidad · es · en · pt · contacto