Acordes de Guitarra » C »Canciones Infantiles » Estrellita (Tab)

Estrellita
Canciones Infantiles

Letras, Notas, Punteos, Tablaturas y Acordes de Guitarra (Tabs & Chords)

  • Tablatura
    B/--------3-3-------3--------1-1--0-0-------------
    G/-0-0------------------------------------2-2--0--
    D/------------------------------------------------
    A/------------------------------------------------
    E/------------------------------------------------
    
    e/----------------------------------------------
    B/--3-3--1-1--0-0-------3-3--1-1--0-0-----------
    G/---------------------2----------------------2-
    D/----------------------------------------------
    A/----------------------------------------------
    E/----------------------------------------------
    
    e/-----------0-0--------------------------------
    B/------3-3-------3--------1-1--0-0-------------
    G/-0-0--------------------------------2-2--0----
    D/----------------------------------------------
    A/----------------------------------------------
    E/----------------------------------------------
    
    
  • Armónica
    6 6 8 8 (8)(8) 8
    
    (7) (7)7 7 (6) (6) 6
    
    6 6 8 8 (8)(8) 8
    
    (7)(7)7 7 (6) (6) 6
    
    8 8 (7) (7) 7 (6)
    
    8 8 (7) (7) 7 (6)
    
    6 6 8 8 (8) (8) 8
    
    (7) (7) 7 7 (6) 6
  • Piano (Teclados)
    sol sol re6 re6 mi6 mi6 re6
    
    do6 do6 si si la la sol
    
    sol sol re6 re6 mi6 mi6 re6
    
    do6 do6 si si la la sol
    
    re6 re6 do6 do6 si si la
    
    re6 re6 do6 do6 si si la
    
    sol sol re6 re6 mi6 mi6 re6
    
    do6 do6 si si la la sol
    
    
    espero que les guste
  • +
    ¡Colabora con nosotros!
    Envíanos tu versión de esta canción

Letra de Estrellita
esto s para los principiantes y reqerden ¡¡vyva pxndx!!
y la "guytarra es la neta"



© LaCuerda.net · Aviso Legal · Privacidad