Acordes de Guitarra » C »Canciones Infantiles » Barney y sus amigos (Tab)

Barney y sus amigos
Canciones Infantiles

Letras, Notas, Punteos, Tablaturas y Acordes de Guitarra (Tabs & Chords)

  • Tablatura
    e||------------0-----0-----|-----------------0--------|
    B||---1--1--3-----1-----3--|--------1--1--3-----1--0--|
    G||------------------------|-----0--------------------|
    D||------------------------|--------------------------|
    A||------------------------|--------------------------|
    E||------------------------|--------------------------|
    
    e||-------------0--1--0---------|---------------------|
    B||----1--1--3-----------3--1---|--0--------0--1--1---|
    G||-----------------------------|-----0--2------------|
    D||-----------------------------|---------------------|
    A||-----------------------------|---------------------|
    E||-----------------------------|---------------------|
    
    e||-------------------------|-------------------------|
    B||-------0-----------0--1--|-------------------------|
    G||----2-----2--0--2--------|--0-----2--0--------0----|
    D||-------------------------|--------------3--2-------|
    A||-------------------------|-------------------------|
    E||-------------------------|-------------------------|
    
  • Tablatura
    Ummm es mi primera tab. Ojalá les guste
    
    
    1|---0-0-2-4-0-4-2---0-0-2-4-0------0-0-2-4-5-4-2---------------
    2|-0---------------0-----------4--0---------------4-0-2-4-5-5---
    3|--------------------------------------------------------------
    4|--------------------------------------------------------------
    5|--------------------------------------------------------------
    6|--------------------------------------------------------------
    
    Cualquier duda envienme un correo a cacb@gmail.com
  • +
    ¡Colabora con nosotros!
    Envíanos tu versión de esta canción

Letra de Barney y sus amigos
SALU2 A TODOS, ESPERO QUE LES GUSTE



© LaCuerda.net · Aviso Legal · Privacidad
DINAMICO