Tablatura para Guitarra de Canciones Populares: Marcha San Lorenzo
Conexión · Inscripción
Letras y Acordes
Pantalla Completa
Imprimir
Versión Texto
Añadir Favorito
Otras Versiones

Mostrar Diagramas
Desfile Automático
Manipular Acordes
Formato del Texto


Marcha San Lorenzo(TAB)

Canciones Populares

calidad:
xxxx1683
AUTOR: Cayetano Alberto Silva
ALBUM: desconocido (1902)
Enviado por Luis
MARCHA DE SAN LORENZO-DE CAYETANO ALBERTO SILVA

INTERPRETADA POR LOS INDIOS TACUNAU "MAESTROS"

e|-------------14----14-17-14--------I-----14-17-14-17-14------I--I
B|----15----15----15----------15-----I---15---------------15---I--I
G|-14----14--------------------------I-14----------------------I--*2
D|-----------------------------------I-------------------------I--I
A|-----------------------------------I-------------------------I--I
E|-----------------------------------I-------------------------I--I

e|-17-14-------17-14-------I-------14--14-------------------I------
B|-------15----------15----I-----15--15--15-15--15-15-15-15-I------
G|----------14----------14-I---14---------------------------I------
D|-------------------------I-16-----------------------------I------
A|-------------------------I--------------------------------I------
E|-------------------------I--------------------------------I------

   6
e|-*-*-***---*-*-***---*-***-***---*****-*****---**************--***-*-***-
B|-------------------------------------------------------------------------
G|-------------------------------------------------------------------------
D|-------------------------------------------------------------------------
A|-------------------------------------------------------------------------
E|-------------------------------------------------------------------------

e|-------------10-----------------------------------------I--
B|-10-10-10-10----10------------10------------------------I--
G|-------------------11-11-11-11---11------------11-------I--
D|------------------------------------12-12-12-12---12----I--
A|----------------------------------------------------12--I--
E|--------------------------------------------------------I--

e|-----------2-3---2---I-----------2-------I-------------5-5-5-5-5-5-5-5-5-5I
B|-----2-3-5-----4---5-I-----2-3-5---2-5-3-I--2-5-3-2-----------------------I
G|-2-4-----------------I-2-4---------------I----------4--2-----2-----2-----2I
D|---------------------I-------------------I--------------------------------I
A|---------------------I-------------------I--------------------------------I
E|---------------------I-------------------I--------------------------------I

e|-2--------2--------2---------2-7-5-3-2------I-3-2------3-2------3-2-------
B|---5-3------5-3------5-3-2-3-----------5----I-----5--------5--------5-4-5-
G|-------22-------22-----------------------44-I-------44-------44-----------
D|--------------------------------------------I-----------------------------
A|--------------------------------------------I-----------------------------
E|--------------------------------------------I-----------------------------

e|-3-7-5-3-2--1-1-1-1-1-1-2-I-2---------2---2-5---2-------2---2-5-I
B|------------0-0-0-0-0-0-3-I---5-3---3---3---------5-3--3--3-----I
G|------------1-1-1-1-1-1-2-I-------2-------------------2---------I
D|------------0-0-0-0-0-0-0-I-------------------------------------I
A|--------------------------I-------------------------------------I
E|--------------------------I-------------------------------------I

e|-2-------2-3-5-7-9-1010---I-------99-7----------77-I-
B|---5-3-5------------------I------------10-8-7------I----
G|------------------------9-I-9-8-9-------------9----I---------
D|--------------------------I------------------------I---
A|--------------------------I------------------------I------
E|--------------------------I------------------------I-----

e|--------------7-----7------------------I------
B|-10-8-7---------10----10-8-7-----------I--------------
G|--------9-7-6----------------9-7-7-777-I----------------
D|---------------------------------------I---------
A|---------------------------------------I-----------
E|---------------------------------------I----------------

e|---------------------------------I-------2-3-2-7-2----------2-I------
B|---------------------------------I--2-3-5----------3--2-3-----I-------
G|---------------4-----------------I-4-----------------4----4---I---
D|-------2-4-5-4---4-------------4-I----------------------------I-------
A|-2-4-5-------------5-2-4-5-2-4---I----------------------------I------
E|---------------------------------I----------------------------I

e|-7-5-3-2-1-2---3-2-----------I---7---9-7--9-7-5-5-3--2-3-5-3-2-I-
B|---5---------3-3-2-5-3-2-3---I---8--10-8-10-6-----2----------3-I-
G|---6-----------4-3---------4-I---7---9-7--9-7-----3----------4-I-
D|---------------5-4-----------I-9-9--11-9-11-6-----2----------4-I-
A|---------------5-4-----------I-------------------------------2-I-
E|---------------3-2-----------I---------------------------------I-

e|----------7-6-7-9-10---I-7-5-3-2-----------I-
B|-7--5-7-5------------7-I---5-----5-3-3-333-I-
G|-----------------------I---6---------------I-
D|-----------------------I-------------------I-
A|-----------------------I-------------------I-
E|-----------------------I-------------------I-

e|-7-5----------------------------7-9-7-9-7--------------------I-
B|-----8-7-5-7---8-7-5----------------------10-10-8-7-8-10-8-7-I-
G|-------------7-------7-6-7-4---7-----------------------------I-
D|-------------------------------------------------------------I-
A|-------------------------------------------------------------I-
E|-------------------------------------------------------------I-


e|--------7-6-7-9-10---7-5-I-5-7-5------------5-II--5-7-5----------------
B|7-5-7-5------------7-----I--------8-7-5---7---II--------8-7-5----------
G|-------------------------I--------------7----I*2I--------------7-7-777-
D|-------------------------I--------------------II-----------------------
A|-------------------------I--------------------II-----------------------
E|-------------------------I--------------------II-----------------------


e|---12-14-15-14-12---------12----------------*-**-14--15---I-
B|-15--------------15--12-13---15-12----10-12------13--15---I-
G|-----------------------------------12------------14---X---I-
D|-----------------------------------------------------15---I-
A|-----------------------------------------------------14---I-
E|----------------------------------------------------------I-


e|----------------------------------------------------------------------------I
B|----------------8-8-7-8------------------------7-8-10-10-10---7-8-7---------I
G|-7-7------9-7-----------9-7-----7-7-9-7-9-7-7-9-------------9------9-7-6----I
D|-----9-10-----9-------------9-9-----------------------------------------10-9I
A|----------------------------------------------------------------------------I
E|----------------------------------------------------------------------------I


e|-------------------------------------------------------------------------
B|----------------8-8-7-10-8-7---10-10-9-10-11-12--------------------------
G|-7-7------9-7----------------9-------------------------------------------
D|-----9-10-----9----------------------------------------------------------
A|-------------------------------------------------------------------------
E|-------------------------------------------------------------------------


e|----------------------------------------7------I----I-15-15-15------
B|-7-8-10-8-7--------------------------10---10---I----I-12-12-12------
G|-----------9-7-6-7-8-7-8-9-8-9-11-12---------8-I-X2-I-12-12-12------
D|-----------------------------------------------I----I-12-12-12------
A|-----------------------------------------------I----I---------------
E|-----------------------------------------------I----I---------------

"EL ARTE SUPREMO DEL MAESTRO CONSISTE EN DESPERTAR EL GOCE DE LA EXPRESION
CREATIVA Y DEL CONOCIMIENTO" GRACIAS LEO CHINO DIEZ POR TANTO.
Este fichero es trabajo propio de su transcriptor y representa su interpretación personal de la canción. El material contenido en esta página es
para exclusivo uso privado, por lo que se prohibe su reproducción o retransmisión, así como su uso para fines comerciales.

© LaCuerda.net · Aviso Legal · Privacidad