Tablatura para Guitarra de Canciones Populares: Himno a la Alegría
Conexión · Inscripción
Letras y Acordes
Pantalla Completa
Imprimir
Versión Texto
Añadir Favorito
Otras Versiones

Mostrar Diagramas
Desfile Automático
Manipular Acordes
Formato del Texto


Himno a la Alegría(TAB)

Canciones Populares

calidad:
xxxx0702
AUTOR: L. v. beethoven
ALBUM: desconocido
Enviado por eduardo
Este es el himno a la alegria,, k les guste!!


e.-------------------------------------------------
B.-0--0--1--3--3--1--0--------------0--0-----------
G.----------------------2--0--0--2--------2--2-----
D.-------------------------------------------------
A.-------------------------------------------------
E.-------------------------------------------------


e.-------------------------------------------------
B.-0--0--1--3--3--1--0--------------0--------------
G.----------------------2--0--0--2------2--0--0----
D.-------------------------------------------------
A.-------------------------------------------------
E.-------------------------------------------------


e.-------------------------------------------------
B.-----0------0--1--0------0--1--0-----------------
G.--2----0--2---------0--2----------2--0--2--------
D.------------------------------------------0------
A.-------------------------------------------------
E.-------------------------------------------------


e.-------------------------------------------------
B.-0--0--1--3--3--1--0------------0----------------
G.---------------------2--0--0--2---2--0--0--------
D.-------------------------------------------------
A.-------------------------------------------------
E.-------------------------------------------------
Este fichero es trabajo propio de su transcriptor y representa su interpretación personal de la canción. El material contenido en esta página es
para exclusivo uso privado, por lo que se prohibe su reproducción o retransmisión, así como su uso para fines comerciales.

© LaCuerda.net · Aviso Legal · Privacidad