Acordes de Guitarra » C »Campo de Almas » Gris (Tab)

Gris
Campo de Almas

Letras, Acordes y Tabs para Guitarra, Bajo y Ukulele

  • [Dm-G]x2
    C-C-C
    
                       Dm           G
    Tus amores, tus temores y tu sed
                           C     
    que me lleve en corto paso fantasmal.
    
                       Dm           G
    Los momentos y rencores que dejé
                             C           Dm
    explicación, que, con sigilo callaré.
    
           G Dm
    Así voló
                G C
    Juegos de azar
    
                     Dm           G
    Una tarde, unas lágrimas de fé
    
  •  iRE#m: SOL#-re#m(2) - DO#
    
     DO#             RE#m
     tus amores, tus temores y tu sed
     SOL#                  DO#
     que me lleven a corto paso fantasmal
     DO#             RE#m
     los momentos y rencores que deje
     SOL#                DO#
     explicacion que con sigilo callare
    
     RE#m           SOL#
     asiii voloooooooo....
     RE#m           SOL#
     juegos de azaaaarrr....
    
     DO#            RE#m
     una tarde unas lagrimas de fe
     SOL#        DO#
     una caricia prohibida en lo mortal
    
  • INTRO
    
    1|------------------------------------------------|
    2|------------------------------------------------|
    3|--7-7-7-7-7-7-7-7-------12-12-12-12-12-12-12-12-|
    4|--7-7-7-7-7-7-7-7-------12-12-12-12-12-12-12-12-|
    5|--5-5-5-5-5-5-5-5-------10-10-10-10-10-10-10-10-|
    6|------------------------------------------------|  
    
    1|------------------------------------------------|
    2|------------------------------------------------|
    3|--7-7-7-7-7-7-7-7-------12-12-12-12-12-12-12-12-|
    4|--7-7-7-7-7-7-7-7-------12-12-12-12-12-12-12-12-|
    5|--5-5-5-5-5-5-5-5-------10-10-10-10-10-10-10-10-|
    6|------------------------------------------------|  
    
    --------------------------------------------------------
    
    
    1|--------------------------------------|
    2|--------------------------------------|
    3|-5-5-5-5-5-5-5-5---7-7-7-7-7-7-7-7----|
    4|-5-5-5-5-5-5-5-5---7-7-7-7-7-7-7-7----|
    5|-3-3-3-3-3-3-3-3---5-5-5-5-5-5-5-5----|
    6|--------------------------------------|
       Tus amores,       tus te
  • Que tal gente, aquí apoyando a este grupazo
    INTRO
    G:--------------------------------------------------------------------
    D:--------------------------------------------------------------------
    A:-5-5-5-5-5-5-5-5-----------------5-5-5-5-5-5-5-5--------------------
    E:-----------------3-3-3-3-3-3-3-3-----------------3-3-3-3-3-3-3-3----
    
    G:--------------------------------------------------------------------
    D:--------------------------------------------------------------------
    A:--------------------------------------------------------------------
    E:-8-8-8-8-8-888--8-8-8-8-8-888--8-8-8-8-8-888------------------------
                                              Tus amores…….
    VERSO I
    G:--------------------------------------------------------------------
    D:--------------------------------------------------------------------
    A:-5-5-5--------------------------------------------------------------
    E:-------3-3-3-3-3-3-3-3-3-3-3-3-3—8-8-8-8-8-8-8-8--------------------
    
    G:--------
  • +
    ¡Colabora con nosotros!
    Envíanos tu versión de esta canción

Letra de Gris
Tus amores, tus temores y tu sed
que me lleve en corto paso fantasmal.
Los momentos y rencores que dejé
explicación, que, con sigilo callaré.
Así voló
Juegos de azar
Una tarde, unas lágrimas de fé
una caricia prohibida en lo mortal.
Mientras mas cerca sentías mi afección
te envenenaba con momentos de amor.
Así partió
Juegos de azar
No necesito, verte llorar
para saber que nunca te iba a amar
Yo me quedo en silencio, por favor
tu sufrimiento clava las esquirlas del dolor.
Tu volverás. Al volver a verme,
tu volverás.
Tu volverás. Al volver a verme,
Siempre sin pensar.
Así partió
Juegos de azar
Lloran, grises,
tardes frías de verano.
No necesito, verte llorar
para saber que nunca te iba a amar
Yo me quedo en silencio, por favor
tu sufrimiento clava las esquirlas del dolor.
Tu volverás. Al volver a verme,
tu volverás.
Tu volverás. Al volver a verme,
Siempre sin pensar.
Un Saludo para los Muchachos de Campo de Almas
y en especial para su bella corista, Patty.




[Gris chords][Gris cifra]
© LaCuerda.net · aviso legal · privacidad · es · en · pt · contacto