Tablatura para Guitarra de Camila: Solo para tí
Conexión · Inscripción
Letras y Acordes
Pantalla Completa
Imprimir
Versión Texto
Añadir Favorito
Otras Versiones

Mostrar Diagramas
Desfile Automático
Manipular Acordes
Formato del Texto


Solo para tí(TAB)

Camila

calidad:
cmla0107
AUTOR: Camila  corregir
ALBUM: desconocido (2006)
Enviado por Luis
Bueno Saludos Mi Nombre Es Luis
Y Este Es Mi Primer Aporte Espero Que Les Guste Suena Igual
Alguna duda Escriban A Mi Correo
 [Scorpion_234hotmail.com] En Fin Pónganle  Ganas….
Intro:
e--------------------------0----|------------------------|
B------3------------------3--3--|----------3-------------|
G--------0---------------2-----2|--------0---0-----------|
D----2--------2--------0------0-|----0h2---------2-------|
A--2--------2-------------------|--3-----------3---------|
E0------------------------------|------------------------|
Eres Todo Lo         Que Pedía   Lo Que Mi Alma Vacía

e-------------------------------|-------------0----------|
B-0---1--3----------------------|------3-----------------|
G--------------2h0---0----------|--------0------0--------|
D---0--------0-----0------------|----2-----2-------------|
A-------------------------------|--2---------------------|
E-3--------3--------------------|0-----------------------|
Quería Sentir                    Eres Lo Que Tanto Esperaba

e-2--------2--3--5--------------|-3----------------------|
B-------3-----------------------|---------3--3---3---3---|
G----2--------------------------|-------0--0-2h4-2h4-4p2p|
D-0---------------0-------------|---0h2-----------------4|
A-------------------------------|-3----------------------|
E-------------------------------|------------------------|
Lo Que En Sueños Buscaba         Y Que En Ti Descubrí

e-------------------------------|
B-------------------------------|
G-----0--2--0-------------------|
D---0---------------------------|
A-------------------------------|
E-3-----------------------------|
Ahora Viene el Verso y El Pre Coro No Es Muy difícil
 El Verso Ya Que Es Casi Igual Al Intro
e--------------------------0----|-------------------------|
B------3------------------3--3--|----------3-------------|
G--------0---------------2-----2|--------0---0-----------|
D----2--------2--------0------0-|----0h2---------2-------|
A--2--------2-------------------|--3-----------3---------|
E0------------------------------|------------------------|
Tu Has Llegado A Encender         Cada Parte De Mi Alma
e-------------------------------|-----------------------|
B-0---1--3----------------------|------3----------------|
G--------------2h0---0----------|--------0--------------|
D---0--------0-----0------------|----2--------2---------|
A-------------------------------|--2--------2-----------|
E-3--------3--------------------|0----------------------|
Cada Espacio De Mi Ser           Ya No Tengo Corazón

e---------------0----------------|------------------------|
B-------------3--3---------------|----------3-------------|
G-----------2--------2-----------|--------0---0-----------|
D---------0--------0-------------|----0h2---------2-------|
A--------------------------------|--3-----------3---------|
E--------------------------------|------------------------|
Ni Ojos Para Nadieee              Solo..

e------------------------|
B--0---1---3---0-1h0---0-|
G------------------------|
D----0---0-----------0---|
A------------------------|
E--3---------3---3-------|
Para Ti…......
Em7 D Cadd9 Eres el amor de mi vida....El destino lo sabia
G Y hoy te puso ante mi
Em7 D Y cada vez que miro al pasado
Cadd9 G Es que entiendo que a tu lado......siempre pertenecí
Am D G Tu has llegado a encender...Cada parte de mi alma
D/F# Em7 Cada espacio de mi ser
C D Ya no tengo corazón....Ni ojos para nadie
Cadd9 Em Am Em Solo para ti......Solo para ti......solo para ti......Solo para ti
Cadd9 G Esto es de verdad, lo puedo sentir
Cadd9 D Se que mi lugar....es junto a ti
Cadd9 Em7 Cadd9 G
G D Eres todo lo que pedía
Cadd9 Lo que no conocía Y que en ti descubrí Les Recomiendo Escuchar La Canción E Ir Acoplando Verso Pre Coro y Coro
Este fichero es trabajo propio de su transcriptor y representa su interpretación personal de la canción. El material contenido en esta página es
para exclusivo uso privado, por lo que se prohibe su reproducción o retransmisión, así como su uso para fines comerciales.

© LaCuerda.net · Aviso Legal · Privacidad