Acordes de Guitarra » C »Callejon 13 » No le ruegues (Tab)

No le ruegues
Callejon 13

Letras, Acordes y Tabs para Guitarra, Bajo y Ukulele

  • B: Bend
    p: pull off
    h: hammer on
    v: palanca
    
    Intro:
    Am                            F
    E|---------------------------|------------------------------|
    B|---------------------------|------------------------------|
    G|---------------------------|------------------------------|
    D|---7---9-10-------7---9-10-|------7---9-10-------7---9-10-|
    A|-7---7-------7--7---7------|-8--8---8-------8--8---8------|
    E|---------------------------|------------------------------|
    
    En el (5)es un armonico natural....
      G                   G#                 Am
    E|----------------------------------------------------(5)v--|
    B|----------------------------------------------------------|
    G|----------------------------------------------------------|
    D|--------9----10-12---------9----10-12--9--9h10h9-7--------|
    
  • +
    ¡Colabora con nosotros!
    Envíanos tu versión de esta canción

Letra de No le ruegues
p: pull off
h: hammer on
v: palanca
En el (5)es un armonico natural....
No le ruegues ni le pidas
que otra ves vuelva a tu lado
que no sepa que sin duda
por su amor te estas matando
no le ruegues ni le digas
que sus besos te hacen falta
no la dejes que por medio
de tus ojos vea tu alma
que no sepa que dolor
te esta acabando
que embes de olvidar su amor
la estas extrañando
Si de desesperacion te hara mas daño
y tu pobre corazon vivira llorando
que no sepa que el dolor te esta acabando
que emvez de olvidar su amor la estas extrañando
si de desesperacion te hara mas daño
y tu pobre corazon vivira llorando.
Lo demas va igual,el solo despues se los paso ora
que tenga tiempo.
Camaras eso es todo y un saludo pa la banda del
cacheton13 que son putos jajaja.

Video de No le ruegues
[]




[No le ruegues chords][No le ruegues cifra]
© LaCuerda.net · aviso legal · privacidad · es · en · pt · contacto
DINAMICO