Tablatura para Bajo de Callejeros: Rompiendo espejos
Conexión · Inscripción
Letras y Acordes
Pantalla Completa
Imprimir
Versión Texto
Añadir Favorito
Otras Versiones

Mostrar Diagramas
Desfile Automático
Formato del Texto


Callejeros
Rompiendo espejos(BAJ)
calidad:
call0165
AUTOR: R.santos
ALBUM: Sed (2001)
Enviado por Ciertos
INTRO
G|----------------------------------------------------------------------
D|------7-8-10--------------------2-3-5-----------7-8-10-8--------------
A|--8--8-------------5-6-8----3--3------------8--8----------------------
E|---------------6--6---------------------------------------------------

G|----------------------------------------------------------------------
D|------10-8-7--------2-5-2---------------------------------------------
A|--8--8----------3--3------------5-8-5---8x----3-3-1-3-3-1-3-3-8x------
E|----------------------------6--6--------------------------------------

VERSO

G|----------------------------------------------------------------------
D|------7-8-10--------------------2-3-5-----------7-8-10-8--------------
A|--8--8-------------5-6-8----3--3------------8--8----------------------
E|---------------6--6---------------------------------------------------

G|----------------------------------------------------------------------
D|------10-8-7--------2-5-2---------------------7-8-10-8----------------
A|--8--8----------3--3------------5-8-5-----8--8------------------------
E|----------------------------6--6--------------------------------------

G|----------------------------------------------------------------------
D|------7-8-10--------------------2-3-5-----------7-8-10-8--------------
A|--8--8-------------5-6-8----3--3------------8--8----------------------
E|---------------6--6---------------------------------------------------


G|----------------------------------------------------------------------
D|------10-8-7--------2-5-2---------------------7-8-10-8-------10-8-7---
A|--8--8----------3--3------------5-8-5-----8--8----------8--8----------
E|----------------------------6--6--------------------------------------

PUENTE (Tengo el vaso...)

G|--------------------------
D|--------------------------  x 2 veces
A|------5-8-5---------10-8--
E|--6-6---------8-8-8-------

(Quiero ver hoy con tus ojos...)

G|----------------------------------------------------------------------
D|--------------------10-10-8-7-----------------------------------------
A|------5-8-5-----8x----------------------------------------------------
E|--6-6--------8x-------------------------------------------------------

ESTRIBILLO (si es para mi adicción)

G|--------------------------------------------------
D|------------------------------7-8-10-8---10-8-7---  x 3 veces
A|------7-10-7-------5-8-5---8-8---------8----------
E|--8-8----------6-6--------------------------------

(Yo solo muero porque hoy...)
G|-------------------------------------------------------------------
D|-------------------------------7-8-10-8---10-8-7-------------------
A|------5-8-5-------7-10-7---8-8----------8--------------------------
E|--6-6---------8-8--------------------------------------------------

(Yo solo niego q pueda seguir...)
G|-------------------------------------------------------------------
D|-------------------------------------------------------------------
A|--3x1x-0x--3x1x-0x-3x----------------------------------------------
E|-------------------------------------------------------------------

En el solo de viola hace la misma base del verso.
La x significa varias veces siguiendo el ritmo del tema.


se lo quiero dedicar a una persona que amo con toda el alma y elijo
este tema ya que era NUESTRO TEMA..

te extraño mucho princesa =$

Droopy Cierto Rey


Lauty Presente
30/12/04
Este fichero es trabajo propio de su transcriptor y representa su interpretación personal de la canción. El material contenido en esta página es
para exclusivo uso privado, por lo que se prohibe su reproducción o retransmisión, así como su uso para fines comerciales.
© LaCuerda.net · Aviso Legal · Privacidad