Tablatura para Guitarra de Callejeros: Rompiendo espejos
Conexión · Inscripción
Letras y Acordes
Pantalla Completa
Imprimir
Versión Texto
Añadir Favorito
Otras Versiones

Mostrar Diagramas
Desfile Automático
Manipular Acordes
Formato del Texto


Rompiendo espejos(TAB)

Callejeros

calidad:
call0164
AUTOR: R.santos
ALBUM: Sed (2001)
Enviado por Pablito
mas terminada jo
Intro

e|-----8-------|---------------|-----------------|------------------|----------------|-----------------------|--------------|
B|--8b---8-(6v)|--6-6-6---6-8b-|-88-8--6---------|------------------|----------------|-----------------------|--------------|
G|-------------|--------7------|---------7-5v----|---5-5-5---5-(5)--|-----5--7b-5-7v-|--7-9-10-9-7--7h10-9-7-|5-3-----------|
D|-------------|---------------|-----------------|---------7--------|--7-------------|-----------------------|----(3)-------|
A|-------------|---------------|-----------------|------------------|----------------|-----------------------|--------------|
E|-------------|---------------|-----------------|------------------|----------------|-----------------------|--------------|

e|--------------------------------------------------||--------------------|
B|--------------------------------------------------||--------------------|
G|--------3x------------5x-------------10--10--10---||-----5-5--3-3-------|
D|--3x-3x-3x-3-5-6-5-3--5x-5-7-8-7-5/--10--10--10---||-3x--5-5--3-3--3-3--|
A|--3x-3x-1x-1-1-1-1-1/-3x-3-3-3-3-3/--8---8----8---||-3x--3-3--1-1--3-3--|
E|--1x-1x-------------------------------------------||-1x------------1-1--|





e|----------------------------------------------------------|---------------|
B|----------------------------------------------------------|---------------|
G|-3/5-5-3x-3x------3/5-5-3x-3x------3/5-5-3x-3x------------|-3x------------|
D|-3/5-5-3x-3x------3/5-5-3x-3x------3/5-5-3x-3x----3x--3x--|-3x---3x-------|
A|-1/3-3-1x-1x------1/3-3-1x-1x------1/3-3-1x-1x----3x--3x--|-1x---3x-------|
E|--------------------------------------------------1x--1x--|------1x-------|


-------------------------------------------------------------------------------------------------------------

e|----------------------------------------------------|
B|----------------------------------------------------|
G|--------3x------------5x-------------10----10--10---|
D|--3x-3x-3x-3-5-6-5-3--5x-5-7-8-7-5/--10----10--10---|
A|--3x-3x-1x-1-1-1-1-1/-3x-3-3-3-3-3/--8---8----8---8-|
E|--1x-1x---------------------------------------------|

Siempre vas a ser lo mejor y nunca te voy a alcanzar

-------------------------------------------------------------------------------------------------------------

e|--------------------|
B|--------------------|
G|-----5-5--3-3-------|
D|-3x--5-5--3-3--3-3--|
A|-3x--3-3--1-1--3-3--|
E|-1x------------1-1--|

milongas bailadas por tres son casi un gramo de infedilidad

-------------------------------------------------------------------------------------------------------------

e|----------------------------------------------------|
B|----------------------------------------------------|
G|--------3x------------5x-------------10----10--10---|
D|--3x-3x-3x-3-5-6-5-3--5x-5-7-8-7-5/--10----10--10---|
A|--3x-3x-1x-1-1-1-1-1/-3x-3-3-3-3-3/--8---8----8---8-|
E|--1x-1x---------------------------------------------|
arto de yirar y yirar me castigo con tu vuelta hoy

-------------------------------------------------------------------------------------------------------------

e|--------------------------------------|
B|--------------------------------------|
G|-----5-5--3-3-------------------------|
D|-3x--5-5--3-3--3----------------------|
A|-3x--3-3--1-1--3-5-6-5-3--3-5-6-5-----|
E|-1x------------1-1-1-1-1--1-1-1-1-----|

mi verso flota en una cancion que ya no es escrita para los dos

-------------------------------------------------------------------------------------------------------------


e|-------------------------------------|----|-8---8---8----8--------|
B|-------------------------------------|----|-10---10--10---10------|
G|-------------------------------------|----|-10----10---10---10----|
D|--------0-0-3/5----------3-3-3-5/7/5-|-x3-|-10--------------------|
A|-1-1-3-3---------3-3-5-5-------------|----|-8---------------------|
E|-------------------------------------|----|-----------------------|
tengo el vaso por la mitad
me niego esta noche a olvidar
quiero ver hoy con tus ojos
y volver a soñar

-------------------------------------------------------------------------------------------------------------

e|---------------8----8-----8-----|------|-----------------------------------|
B|----------------10----10---10---|------|-----------------------------------|
G|-5-5--3--3--10----10----10---10-|------|-------------------10x--10x--10/---|
D|-5-5--3--3--10------------------|--x4--|-----1--5------3---10x--10x--10/---|
A|-3-3--1--1--8-------------------|------|-1-3----3--3-5------8x---8x---8/---|
E|--------------------------------|------|-----------------------------------|


si para mi adiccion giles son los que sobran
si mi imaginacion falla eso ya no importa

si para mi adiccion giles son los que sobran
yo solo muero porque hoy me faltan tus sobras

-------------------------------------------------------------------------------------------------------------

e|----------------------------------------------------|
B|----------------------------------------------------|
G|--------3x------------5x-------------10----10--10---|
D|--3x-3x-3x-3-5-6-5-3--5x-5-7-8-7-5/--10----10--10---|
A|--3x-3x-1x-1-1-1-1-1/-3x-3-3-3-3-3/--8---8----8---8-|
E|--1x-1x---------------------------------------------|

miento en lo que siento esta vez
para que no nos duela peor

-------------------------------------------------------------------------------------------------------------

e|--------------------|
B|--------------------|
G|-----5-5--3-3-------|
D|-3x--5-5--3-3--3-3--|
A|-3x--3-3--1-1--3-3--|
E|-1x------------1-1--|

tu alma dice nevado es mejor
y asi se prende a lo que una vez tomo y tomo


-------------------------------------------------------------------------------------------------------------

e|----------------------------------------------------|
B|----------------------------------------------------|
G|--------3x------------5x-------------10----10--10---|
D|--3x-3x-3x-3-5-6-5-3--5x-5-7-8-7-5/--10----10--10---|
A|--3x-3x-1x-1-1-1-1-1/-3x-3-3-3-3-3/--8---8----8---8-|
E|--1x-1x---------------------------------------------|

quien puede negarse a peder
si voy perdiendo en esas piernas hoy

-------------------------------------------------------------------------------------------------------------

e|--------------------------------------|
B|--------------------------------------|
G|-----5-5--3-3-------------------------|
D|-3x--5-5--3-3--3----------------------|
A|-3x--3-3--1-1--3-5-6-5-3--3-5-6-5-----|
E|-1x------------1-1-1-1-1--1-1-1-1-----|

mi verso flota en una cancion que ya no es escrita para los dos

-------------------------------------------------------------------------------------------------------------

e|-------------------------------------|----|-8---8---8----8--------|
B|-------------------------------------|----|-10---10--10---10------|
G|-------------------------------------|----|-10----10---10---10----|
D|--------0-0-3/5----------3-3-3-5/7/5-|-x3-|-10--------------------|
A|-1-1-3-3---------3-3-5-5-------------|----|-8---------------------|
E|-------------------------------------|----|-----------------------|

tengo el vaso por la mitad
me niego esta noche a olvidar
quiero ver hoy con tus ojos
y volver a soñar

-------------------------------------------------------------------------------------------------------------

e|---------------8----8-----8-----|------|-----------------------------------|
B|----------------10----10---10---|------|-----------------------------------|
G|-5-5--3--3--10----10----10---10-|------|-------------------10x--10x--10/---|
D|-5-5--3--3--10------------------|--x4--|-----1--5------3---10x--10x--10/---|
A|-3-3--1--1--8-------------------|------|-1-3----3--3-5------8x---8x---8/---|
E|--------------------------------|------|-----------------------------------|

si para mi adiccion giles son los que sobran
si mi imaginacion falla eso ya no importa

si para mi adiccion giles son los que sobran
yo solo muero porque hoy me faltan tus sobras

-------------------------------------------------------------------------------------------------------------
(con un punteo abajo)
C Bb F yo solo niego que pueda seguir
C Bb F C rompiendo espejos sin mirar a atras mirar atras yeeeeeee ------------------------------------------------------------------------------------------------------------- e|-----8-------|---------------|-----------------|------------------|----------------|-----------------------|--------------| B|--8b---8-(6v)|--6-6-6---6-8b-|-88-8--6---------|------------------|----------------|-----------------------|--------------| G|-------------|--------7------|---------7-5v----|---5-5-5---5-(5)--|-----5--7b-5-7v-|--7-9-10-9-7--7h10-9-7-|5-3-----------| D|-------------|---------------|-----------------|---------7--------|--7-------------|-----------------------|----(3)-------| A|-------------|---------------|-----------------|------------------|----------------|-----------------------|--------------| E|-------------|---------------|-----------------|------------------|----------------|-----------------------|--------------| e|--------------------------------13---------------------------------------------------------------------------------13-10h12h13--| B|-------------11b-10-11-10-11-10----10------------------------------------------------------10h11h13-13-10-----------------------| G|-10-10-12-10-------------------------12-12--10-9h10-10v---14-12------10-10-10------------10---------------12-10v----------------| D|------------------------------------------------------------------------------10/12b-10v-----------------------------------------| A|--------------------------------------------------------------------------------------------------------------------------------| E|--------------------------------------------------------------------------------------------------------------------------------| ------------------------------------------------------------------------------------------------------------- e|------------------------------------|----|-(1)-------------------------| B|------------------------------------|----|-(1)-------------------------| G|------------------------------------|----|-(2)-----(10)/------10-10----| D|--------0-0-3/5----------3-3-3-5/7--|-x3-|-(3)-----(10)/------10-10----| A|-1-1-3-3---------3-3-5-5------------|----|-(3)-----(8)-/------8--8-----| E|------------------------------------|----|-(1)-------------------------| tengo el vaso por la mitad me niego esta noche a olvidar quiero ver hoy con tus ojos y volver a soñar --------------------------------------------------------------------------------------- e|--------------1----1---1----|------|-----------------------------------|----| B|----------------1---1---1---|------|-----------------------------------|----| G|-5-5--3--3-------2---2---2--|------|-------------------10x--10x--10/---|----| D|-5-5--3--3--3---------------|--x4--|-----1--5------3---10x--10x--10/---|-x3-| A|-3-3--1--1--3---------------|------|-1-3----3--3-5------8x---8x---8/---|----| E|------------1---------------|------|-----------------------------------|----| si para mi adiccion giles son los que sobran si mi imaginacion falla eso ya no importa si para mi adiccion giles son los que sobran yo solo muero porque hoy me faltan tus sobras yo solo muero porque hoy me faltan tus sobras yo solo muero porque hoy me faltan tus sobras. ----------------------------------------------------------------------------------------- e|-----------------------------------------------------|----|----------------------1----| B|-----------------------------------------------------|----|----------------------1----| G|-----------------------------------------------------|----|----------------------2----| D|-3-5-3-5--5-7-5-7--10-12-13-12-10---10-12-13-12-10---|-x2-|-3-5-3-5---5-7-5-7----3----| A|-1-1-1-1--3-3-3-3---8--8--8--8--8----8--8--8--8--8---|----|-1-1-1-1---3-3-3-3----3----| E|-----------------------------------------------------|----|----------------------1----| el ghetto del rey ¨ por los sueños que se hundieron alla, no olvidar siempre resistir ¨
Este fichero es trabajo propio de su transcriptor y representa su interpretación personal de la canción. El material contenido en esta página es
para exclusivo uso privado, por lo que se prohibe su reproducción o retransmisión, así como su uso para fines comerciales.

© LaCuerda.net · Aviso Legal · Privacidad