Tablatura para Guitarra de Callejeros: Rompiendo espejos
Conexión · Inscripción
Letras y Acordes
Pantalla Completa
Imprimir
Versión Texto
Añadir Favorito
Otras Versiones

Mostrar Diagramas
Desfile Automático
Manipular Acordes
Formato del Texto


Callejeros
Rompiendo espejos(TAB)
calidad:
call0162
AUTOR: R.santos
ALBUM: Sed (2001)
Enviado por Diego
ACA LES DEJO LA INTRO ORIGINAL Y EL SOLO DEL MEDIO. ES
LA ORIGINAL. LO AFIRMO YA QUE EH TOCADO ESTE TEMASOO EN VIVO. SUERTE.

   /  LA BARRA SIGNIFICA ESTIRAR LA CUERDA.

          PUNTEO INTRO:
e|----------------------------------------------------------|
b|--13---13-------------------------------------------------|
G|----12/--12/-10-10-10--10--12-12-12-9---------------------|
D|---------------------12--------------12-10-10-------------|
A|-----------------------------------------------12-10-12---|
E|----------------------------------------------------------|

e|---------------------------------------------------------|
b|---------------------------------------------------------|
G|------------------------10-9---12----10------------------|
D|-10---10-12/-10-12--10-12---------12-----12---10---------|
A|---12---------------------------------------12---10-8----|
E|---------------------------------------------------------|


 SOLO DEL MEDIO: REPITE LA INTRO Y DESPUES HACE OTRO
PUNTEO QUE ES ESTE:(TOCAR RAPIDO SINO NO SUENA NI X CASUALIDAD).

e|---------------------------------------13-----------------------|
b|----------------11/-10-11-10-11-10-11-----11-10-10-10-----------|
G|----10-10-12-10----------------------------------------12-10----|
D|-10----------------------------------------------------------12-|
A|----------------------------------------------------------------|
E|----------------------------------------------------------------|


e|---------------------------------------------11------|
b|-------------------------------------------11-----11-|
G|-10-10-12/-10-10-10-----------------12--/13-----13---|
D|-------------------12-10-12/-10/---------------------|
A|-----------------------------------------------------|
E|-----------------------------------------------------|


e|----------------11-|
b|--------------11---|
G|-13-10-10--13------|
D|-------------------|
A|-------------------|
E|-------------------|


         LOS ACORDES SON: FA- LA#- SI.. TODO CON UNA BASE DE ROCK.

La parte que dice : tengo el vaso por la mitad, me niego esta noche
 a olvidar...
la guitarra hace esto:

e|------------------------------|
b|------------------------------|
G|-------------0------------2---|   X 3
D|----0-0--3-3-----0-2-5-5----5-|
A|-1-1----------3-3-------------|
E|------------------------------|


 Hasta acà fuè.

Saludos.

Diego
Este fichero es trabajo propio de su transcriptor y representa su interpretación personal de la canción. El material contenido en esta página es
para exclusivo uso privado, por lo que se prohibe su reproducción o retransmisión, así como su uso para fines comerciales.
© LaCuerda.net · Aviso Legal · Privacidad