Tablatura para Guitarra de Callejeros: Rebelde, agitador y revolucionario
Conexión · Inscripción
Letras y Acordes
Pantalla Completa
Imprimir
Versión Texto
Añadir Favorito
Otras Versiones

Mostrar Diagramas
Desfile Automático
Manipular Acordes
Formato del Texto


Rebelde, agitador y revolucionario(TAB)

Callejeros

calidad:
call0452
AUTOR: Callejeros, Djerfy, Rogello Santos
ALBUM: Rocanroles Sin Destino (2004)
Enviado por leandro
bueno espero que les sirva de algo
no es la mejor
pero esta bien la tabs,cualquiero cosa se corrige


1|----------------------------------------------------0
2|----------------4br5r4-2---2-------5--4--2------4---0
3|-1(x12)-------1----------4---1---2---2--2--2-2/4-----
4|--------4-2-4----------------------------------------
5|-----------------------------------------------------
6|--------------------------------------------------0--

1|------------------------------------------------
2|----------------4br5r4--2---2-------------------
3|-1(x12)-------1-----------4---4-1-----------2-1-
4|--------4-2-4---------------------2(x12)---2----
5|-----------------------------------------4------
6|------------------------------------------------



saludos gente
Este fichero es trabajo propio de su transcriptor y representa su interpretación personal de la canción. El material contenido en esta página es
para exclusivo uso privado, por lo que se prohibe su reproducción o retransmisión, así como su uso para fines comerciales.

© LaCuerda.net · Aviso Legal · Privacidad