Acordes de Guitarra » C »Los Caligaris » Tus Besos (Tab)

Tus Besos
Los Caligaris

Letras, Acordes y Tabs para Guitarra, Bajo y Ukulele

  • Intro: A-C#m-Bm-E x2
    
         A               C#m
    No puedo dejar de pensar
              Bm                  E
    En el placer que vos me provocás
          A                      C#m
    Siempre me haces sentir tan bien
     Bm              E
    Como te voy a dejar.
    
                 A                 C#m
    Y es que me gusta caminar con vos,
          Bm              E
    alucinando vamos los dos
        A                  C#m
    Tu dosis me hace tan bien
          Bm                E
    que aveces me hace tan mal.
    
    
  • Espero sea de su agrado esta canción...
    
    
      Intro...
    G|--------------------------------------------------------|
    D|-----4-----4-------8-----8-------6-----6----------------|
    A|--2-----2-------6-----6-------4-----4----------4-----4--|
    E|--------------------------------------------2-----2-----|
    
    G|---------------------------------------------------------|
    D|-----4-----4-------8-----8-------6-----6-----------------|
    A|--2-----2-------6-----6-------4-----4-----------------4--|
    E|----------------------------------------------2----------|
    
    
    
      No puedo...
    G|-------------------------------------------------------|
    D|---------------------8---------------------------------|
    A|--2---2-2-------6-6----6---------4---4-4------------4--|
    E|-----------------------------------------------2-2-----|
    
    G|-------------------------------------------------------|
    D|---------------------8---------------------------------|
    A|--2---2-2-------6-6----6---------4---4-4------------4--|
    E|----------------------------
  • +
    ¡Colabora con nosotros!
    Envíanos tu versión de esta canción

Letra de Tus Besos
No puedo dejar de pensar
En el placer que vos me provocás
Siempre me haces sentir tan bien
Como te voy a dejar.
Y es que me gusta caminar con vos,
alucinando vamos los dos
Tu dosis me hace tan bien
que aveces me hace tan mal.
Y no puedo parar de probar tu cuerpo
me vuelve loco cada uno de tus besos
No puedo parar de probar tu cuerpo
me vuelve loco cada uno de tus besos.
Me embriaga tu perfume
me quema tu sabor.
Tu magia me consume,
me condena bajo el sol.
Y es que me gusta caminar con vos,
alucinando vamos los dos
Tu dosis me hace tan bien
que aveces me hace tan mal.
Y no puedo parar de probar tu cuerpo
me vuelve loco cada uno de tus besos
No puedo parar de probar tu cuerpo
me vuelve loco cada uno de tus besos.




[Tus Besos chords][Tus Besos cifra]
© LaCuerda.net · aviso legal · privacidad · es · en · pt · contacto
DINAMICO