Acordes de Guitarra » C »Los Cafres » De mi mente (Tab)

De mi mente
Los Cafres

Letras, Acordes y Tabs para Guitarra, Bajo y Ukulele

  • Intro: G  Am
    
    Am                        G
    No puedo sacarte de mi mente
    Am                        G
    no puedo sacarte de mi mente
                                  Am         
    desde el momento en que te vi frente a frente
    G                    Am
    ese fuego tuyo quemo mi mente
    G                         Am
    y se altero mi equilibrio para siempre
    G                       Am
    no me interesa nada mas soy un ente
    
    
    G                    Am
    Constantemente sueño con verte
    G                            Am
    y es que conocerte no me fue indiferente
    
  • Gran cancion de los cafres..
    buen reggae!
    
    
    
    VERSO
    
    
     Mi corazon salta al verte..
     |--------------------------------|
     |----------0---------------------|
     |---0h2p0----2---5h7-7-5-----2---|
     |-3------3-----5---------7-5---3-|
    
    
     |----------------------------|
     |----------0-----------------| (variacion)
     |---0h2p0----2---5h7-9-7-5-7-|
     |-3------3-----5-------------|
    
    CORO
    
     todo en mi cuerpo quiere verte..
     |------------------------------| x3
     |------------------------------|
     |---7-7--77-5---------99---9---|
     |-0-----------7-7--77----7---7-|
    
    
    uoo ya que no pueeedo sacarte de mi mente
     |----------------~~~~~~~|
     |----------------~~~~~~~|
     |---7---77-----7-5~~~~~~|<--- (dejar sonar)
     |-5---5----5-8---~~~~~~~|
    
    
    y pss ahi escuchan la rola para k le hallen..
    
    saludos
  • +
    ¡Colabora con nosotros!
    Envíanos tu versión de esta canción

Letra de De mi mente
No puedo sacarte de mi mente
no puedo sacarte de mi mente
desde el momento en que te vi frente a frente
ese fuego tuyo quemo mi mente
y se altero mi equilibrio para siempre
no me interesa nada mas soy un ente
Constantemente sueño con verte
y es que conocerte no me fue indiferente
seria una bendicion cerca tenerte
ojala te encuentre quiza casualmente
¡todo en mi cuerpo quiere verte!
Y pide a gritos abrazarte
o por lo menos escuchar tu voz
ya que no puedo, sacarte de mi mente.
Mi corazon salta al verte
no puedo sacarte de mi mente
que bien se siente
no puedo sacarte de mi mente
uuuuuhhhhh
no puedo sacarte de mi mente
es mas que fuerte
no puedo sacarte de mi mente
es una suerte conocerte
criatura del sol
tu pensamiento ilumina el presente
criatura del sol
Mi corazon salta al verte...
que bien se siente es mas q fuerte.




[De mi mente chords][De mi mente cifra]
© LaCuerda.net · aviso legal · privacidad · es · en · pt · contacto
DINAMICO