Acordes de Guitarra » C »Los Cafres » Bastará (Tab)

Bastará
Los Cafres

Letras, Acordes y Tabs para Guitarra, Bajo y Ukulele

  •   G#     Eb         A#m C#
    Ya me transformo en agua
     G#        Eb             A#m C#
    sólo por subir al cielo y volver
     G#    Eb      A#m C#
    a caer en tus ojos
     G#      Eb        A#m
    lo haría una y otra vez
    
    (2)
             Eb
    Por este sol
    A#m      Eb
     quemaría mis días
    A#m       Eb
     por este sol
    A#m          Eb
     te entrego toda mi vida.
    
    (3)
    
  • Intro
    
    E-||---4-6-8------------------6-8-6---------------------|
    B-||--------4-6-9-6-6-9--6-6-9-----9-6--------------------
    G-||------------------------------------------------------|
    D-||------------------------------------------------------|
    A-||------------------------------------------------------|
    E-||------------------------------------------------------|
    
    
    E-||---4-6-8------------------6-8-6-----------------------|
    B-||--------4-6-9-6-6-9--6-6-9-----9----------------------
    G-||------------------------------------------------------|
    D-||------------------------------------------------------|
    A-||------------------------------------------------------|
    E-||------------------------------------------------------|
    
    Chebereber@hotmail.com
  • +
    ¡Colabora con nosotros!
    Envíanos tu versión de esta canción

Letra de Bastará
Ya me transformo en agua
sólo por subir al cielo y volver
a caer en tus ojos
lo haría una y otra vez
(2)
Por este sol
quemaría mis días
por este sol
te entrego toda mi vida.
(3)
Bastará
sólo con verte
bastará
ver tu cielo de frente
bastará
sólo con verte
bastará
ver tu cielo de frente
(1)
Ya lloví en tus tierras
Fuimos barro sin saberlo bien
a través de tus ojos
lo escucho una y otra vez
(2)
Por este sol
quemaría mis días
por este sol
te entrego toda mi vida
(3)
Bastará
sólo con verte
bastará
ver tu cielo de frente
bastará...




[Bastará chords][Bastará cifra]
© LaCuerda.net · aviso legal · privacidad · es · en · pt · contacto