Acordes de Guitarra » C »Café Tacuba » las Persianas (Tab)

las Persianas
Café Tacuba

Letras, Acordes y Tabs para Guitarra, Bajo y Ukulele

  • C
    A traves de las persianas 
    
    de tu cuarto de tu alma
    
    tu sientes como se filtra 
    Am           Fm
    la nostalgia.
    
    
    C
    cuando cae la noche 
    
    sobre ti sobre tus hombros
    
    tu sabes como te duele 
    Am          Fm
    estar aqui.
    
    
    
  •     /  todo MI amor A Muchis...T.Q.M. /
        /------------------------------------------/
    
    
    
     DO    SOL7   DO    SOL7
     A  traves de las persianas
    
     DO     SOL7   DO    SOL7           ---------------------
     de tu cuarto, de tu alma            Tonalidad: Do Mayor
                                         Ritmo: Corrido
     DO  SOL7   DO       SOL7
     tu sientes como se filtra          ----l------l---------6a
                                        ----l------l---------5a
     LAm        SOL# Mayor              ----l------l---------4a
     LA nostalgia.                      ----l------l---------3a
                                        ----l------l---------2a
                                        ----V------V---------1a
      DO    SOL7 DO   SOL7
     Cuando cae la noche
    
  • ESTA TABLATURA LA SAQUE EN UN PAR DE ORAS FUE MUCHO TRBAJO
    PERO AL FIN AQUI LA TIENEN!!! (NO FUE NADA FACIL EE)
    ESPERO QUE LA DSIFRUTEN...LA HICE EN RIFFS PARA NO CONFUNDIRLOS POR
    QUE SE REPITE MUCHO....esta 100%correcta
    
    los primero 7 riffs lo toca la guitarra 1...es como la guitarra base
    la otra guitarra 2 (en vdd no es guitarra pero suena bn deberian checarlo)
    toka puros solitos y sus riffs son de la 8 a la 12
    
    y los riff son:
    
    riff 1
    e|---3--3-3-3--3---3-3---3--3-3-3--3---3---
    b|---5--5-5-5--5---3-3---5--5-5-5--5---3---
    g|---5--5-5-5--5---4-4---5--5-5-5--5---4---
    d|---5--5-5-5--5---5-5---5--5-5-5--5---5---
    a|---3--3-3-3--3---5-5---3--3-3-3--3---5---
    E|-----------------3-3-----------------3---
    riff 2
    
    e|-----5----5----5----5----4-4-4-4---4------
    b|---x-5--x-5--x-5--x-5----4-4-4-4---4------
    g|---x-6--x-6--x-6--x-6----5-5-5-5---5------
    d|---x-7--x-7--x-7--x-7----6-6-6-6---6------
    a|-----7----7----7----7----6-6-6-6---6------
    E|-----5----5----5----5----4-4-4-4--
  • C||--------------------|------------------|--------------------|------------|
    C||--------------------|------------------|--------------------|--57--------|
    C||--45--42-42-42--42--|--45--42--45--42--|--45--42-42-42--42--|--45--------|
    C||--------------------|------------------|--------------------|------------|
    C||--------------------|------------------|--------------------|------------|
    C||--------------------|------------------|--------------------|------------|
    
    
                                                                              
    --------------------|------------------|--------------------|------------|
    --------------------|------------------|--------------------|--57--------|
    --45--42-42-42--42--|--45--42--45--42--|--45--42-42-42--42--|--45--------|
    --------------------|------------------|--------------------|------------|
    --------------------|------------------|--------------------|------------|
    --------------------|------------------|--------------------|-----
  • +
    ¡Colabora con nosotros!
    Envíanos tu versión de esta canción

Letra de las Persianas
A traves de las persianas
de tu cuarto de tu alma
tu sientes como se filtra
la nostalgia.
cuando cae la noche
sobre ti sobre tus hombros
tu sabes como te duele
estar aqui.
Sin embargo
ella esta a tu lado
un poco fria se volvio,
pero tu la estas amando.
A traves de las persianas
de tu mente de tus recuerdos
tu sientes como te oprimen
esos sentimientos
Cuando cae el remordimiento
sobre ti sobre tus manos
tu sabes como te duele
haberlo hecho.
Sin embargo
ella esta a tu lado
nunca solo te dejo.
Ni por un instante en tu cuarto.
Desde que tu la hiciste sufrir
por su cuello tu la hiciste morir
y no pudo nada ya decir.




[las Persianas chords][las Persianas cifra]
© LaCuerda.net · aviso legal · privacidad · es · en · pt · contacto