Tablatura para Guitarra de Café Tacuba: La 2
Conexión · Inscripción
Letras y Acordes
Pantalla Completa
Imprimir
Versión Texto
Añadir Favorito
Otras Versiones

Mostrar Diagramas
Desfile Automático
Manipular Acordes
Formato del Texto


La 2(TAB)

Café Tacuba

calidad:
tacb1051
AUTOR: Ruben Albarran
ALBUM: Revés (1999 (creo)
Enviado por 123Galleto
INTRO
E------------------/-----/--------------------
B------------------/-----/--------------------
G------------------/-----/-----------4-2------
D-------0-2--------/-(X3)/-------0-2-----0----
A-0-2-3-----0-2-3--/-----/-0-2-3--------------
E------------------/-----/--------------------

RIFF
E------------------/-------------------------/------------------
B-7(b)-----7(b)----/----12(b)------12(b)-----/-10(b)-----7(b)---
G-----5--5-----5---/---------9---9------9----/------7--7-----5--
D-------7----------/-----------10------------/--------9---------
A------------------/-------------------------/------------------
E------------------/-------------------------/------------------
Guitarra 1         Guitarra 2            Esta es la variación final

Cambio
E-0-0-0-0--10-10--0-0-0-0--10-10--0-0-0-0--10-10--14-14-14-14-14-14-12-12
B-5-5-5-5---------5-5-5-5---------5-5-5-5--------------------------------
G------------------------------------------------------------------------
D------------------------------------------------------------------------
A------------------------------------------------------------------------
E------------------------------------------------------------------------

Melodia
E---------7-----------/---------7---------7---
B----10-8---7-8-7-8---/----10-8---7-8-7-8-----
G-------------------7-/-----------------------
D-10------------------/--10-------------------
A---------------------/-----------------------
E---------------------/-----------------------

E----------------------------------------
B----------------------------------------
G----------------------------------------
D--7-7-7-7-7-7-7-7-x-x-x-x-x-x-x-x------- (x4)
A--0-0-0-0-0-0-0-0-x-x-x-x-x-x-x-x-------
E----------------------------------------

Solo
E---------------------------------------------------------------
B---------------------------------------------------------------
G-5-5-5-5--8-8--5-5-5-5--7-7-(6)(6)(6)(5)(5)-6-6-6-6-6-6-5-5----
D-----------------------------7--7--7--6--6--7-7-7-7-7-7-6-6----
A---------------------------------------------------------------
E---------------------------------------------------------------

Outro
E------------------------5-7-5---/-------------------------5-7-5-8-/-
B-------------------5-7-8--------/-------------------5-7-8---------/
G-4-5-7-4-5-7-4-5-7------------5-/-4-5-7-4-5-7-4-5-7---------------/
D--------------------------------/---------------------------------/
A--------------------------------/---------------------------------/
E--------------------------------/---------------------------------/

E-------------------------5-5----8--
B-------------------5-7-8-------10--
G-4-5-7-4-5-7-4-5-7-----------------
D-----------------------------------
A-----------------------------------
E-----------------------------------

Okey chavos soy nuevo por aquí,
 y saque esto escuchando la canción espero les sirva,
por ahí tengo guardados varias transcripciones del disco Revés de los Tacubos
...para quienes si les gustan wuahu!! :D
bueno subiré todos mis fragmentos y mándenme sus opiniones mi correo es:
Darkyrockerlokow@hotmail.com o Facebook aparece José Alberto Roxwer
saludos
bye
Este fichero es trabajo propio de su transcriptor y representa su interpretación personal de la canción. El material contenido en esta página es
para exclusivo uso privado, por lo que se prohibe su reproducción o retransmisión, así como su uso para fines comerciales.

© LaCuerda.net · Aviso Legal · Privacidad