Acordes de Guitarra » C »Caceria de Lagartos » Si Entendieras (Tab)

Si Entendieras
Caceria de Lagartos

Letras, Acordes y Tabs para Guitarra, Bajo y Ukulele

  •  D                            F#
    Si entendieras que cuando te miro,
                      Bm
    esta soledad se auyenta.
                          G
    Y en los ratos mas felices, tu
        E               A
    presencia siempre cuenta.
    
    D                               F#
    Si entendieras que cuando me escuchas,
                        Bm
    mis palabras salen tiernas.
                        G          E          A
    Y atravez de tu sonrisa se refleja la inocencia.
    
    CORO
    
     D                  F#
    Si entendieras que nunca dejare de
    
  • C                           Em
    Si entendieras que cuando te miro,
                      Am
    esta soledad se auyenta.
                          F
    Y en los ratos mas felices, tu
        Dm               G
    presencia siempre cuenta.
    
    C                               Em
    Si entendieras que cuando me escuchas,
                        Am
    mis palabras salen tiernas.
                        F          Dm           G
    Y atravez de tu sonrisa se refleja la inocencia.
    
    CORO
    
    C                  Em
    Si entendieras que nunca dejare de
    
  •          D (varias veces)
    E|-------------------------|
    B|------3-----3-----2h3----|
    G|----2---2-----2----------|
    D|--0-------0-----0--------|
    A|-------------------------|
    E|-------------------------|
    
    Riff 1
    
             D                F#        Bm           G
    E|--------------------------------------------------------------
    B|------3-----3-----2h3-----------------3-----3-------3-----3---
    G|----2---2-----2------------3--------4---4-------------4-------
    D|--0-------0-----0--------4---4----4-------4-------5-----5-----
    A|-----------------------4-------4----------------5-------------
    E|--------------------------------------------------------------
    
             E     A
    E|--------------------------|
    
  •                            D
    E.-------------------------------------------5------|
    B.---------3---------------------------7------------|
    G.-----2------2-----2-------6/7---------------------|
    D.-0-------------0----------------------------------|     x 8
    A.--------------------------------------------------|
    E.--------------------------------------------------|
    
    
    Versos:(le hize un arreglo facil)
    
                        D                                F#7
    E. ------------------2---------------|---------------------------2------|
    B. ---------3------------3----------|---------------2---------------2---|
    G.------2------2------------2------|----------3---------3---------------|
    D.---0--------------0-----------0--|------2-------2-----------2---------|
    A.----------------------------------- |---------------------------------|
    E.----------------------------------- |--3------------------------------|
     Si entendieras que cuando te miro           esta soledad se
    
    
  • +
    ¡Colabora con nosotros!
    Envíanos tu versión de esta canción
  • Tutorial
    HD
    (Como Tocar)
    Tutorial Guitarra Si Entendieras - Caceria de Lagartos Guitarra Acustica
    7:02

Letra de Si Entendieras
Si entendieras que cuando te miro,
esta soledad se auyenta.
Y en los ratos mas felices, tu
presencia siempre cuenta.
Si entendieras que cuando me escuchas,
mis palabras salen tiernas.
Y atravez de tu sonrisa se refleja la inocencia.
Si entendieras que nunca dejare de
amarte, que mis horas tristes son cuando no estas aqui.
Si entendieras el tiempo no podra borrarnos,
que en tus pensamientos siempre yo estare.
Si entendieras que lo que pronuncio
esta lleno de franqueza,
entonces en mi vida moriria la tristeza.
Si entendieras que nunca dejare de
amarte, que mis horas tristes son
cuando no estas aqui.
Si entendieras el tiempo no podra borrarnos,
que en tus pensamientos, siempre los
recuerdos te hablaran de mi.
Si entendieras que nunca dejare de
amarte, que mis horas tristes son
cuando no estas aqui.
Si entendieras el tiempo no podra borrarnos,
que en tus pensamientos, siempre los
recuerdos te hablaran de mi.




[Si Entendieras chords][Si Entendieras cifra]
© LaCuerda.net · aviso legal · privacidad · es · en · pt · contacto
DINAMICO