Acordes de Guitarra » C »los Caballeros de la Quema » Jodido Noviembre (Tab)

Jodido Noviembre
los Caballeros de la Quema

Letras, Notas, Punteos, Tablaturas y Acordes de Guitarra (Tabs & Chords)

  • Letra y Acordes
    + Tablaturas de la Vanguardia del Rock          +
    + http://www.geocities.com/BourbonStreet/6195/  +
    +++++++++++++++++++++++++++++++++++++++++++++++++
    
    Jodido este noviembre,
    que me fusila y amanece sin vos
    Dónde fue que perdimos la risa?
    De nuevo no volviste:
    malas noticias para mí para vos,
    nadie nos fía más mentiras.
    Tanto cielo afuera y nosotros estrellándonos.
    Tanta luna suelta y nosotros sin tocarnos,
    sin aullarnos...
    Jodido este noviembre,
    tirando piedras para ahogar el dolor
    de esta patada y este silencio.
    De nuevo sin aliento,
    llegando tarde a lo que nunca parió.
    Quién nos estranguló las ganas?
    Y mientras las gentes
    Salen a morir sus vidas,
    yo mastico tu nombre y le tiro
    este corazón a los perros
    y después te olvido.
    Mascotas huerfanitas,
    malas noticias para mí para vos:
    nada crece entre las cenizas...
    Tanto cielo afuera y nosotros estrellándonos.
    Tanta luna suelta y nosotros sin tocarnos,
    sin aullarnos.
    Y mientras las gentes
    salen a morir sus vidas,
    yo mastico tu n
  • Tablatura
    e|-----------------------|-------------5-----------|
    B|--------5-----8--7--5--|-5--4----4-----4---------|
    G|----6h7---6---8--7--5--|-5--5--5----5-----5--(0)-|
    D|--7-----------5--5--5--|-4--3--------------------|
    A|-----------------------|-------------------------|
    E|-----------------------|-------------------------|
                                                                 x2
    e|-----------------------|-----------------------------|
    B|--------5----8--7--5---|-7---8----------10-----------|
    G|----6h7---6--8--7--5---|-7---8-----8-------8---------|
    D|--7----------5--5--5---|-4--10--10---10------10--(0)-|
    A|-----------------------|-----------------------------|
    E|-----------------------|-----------------------------|
    
    Estrofa 1
    
       A             A/G  F#m       F
    Jodido este noviembre que me fusila y amanece sin vos
    Dónde fue que perdimos la risa?
    De nuevo no volviste: malas noticias para mí, para vos.
    
  • Tablatura
    e|------------------------------------5-----------|
    B|--------5------8-7-5----5--4----4-------4-------|
    G|----6h7---6----7-7-5----5--5--5---5---5---5-----|
    D|--7------------------7--4--3--------------------|
    A|------------------------------------------------|
    E|------------------------------------------------|
    
    e|----------------------------5-------5-----------|
    B|--------5------8-7-5-----7--4---4-------4-------|
    G|----6h7---6----7-7-5-----7--5-5---5---5---5-----|
    D|--7------------------7--------------------------|
    A|------------------------------------------------|
    E|------------------------------------------------|
    
    e|------------------------------------5-----------|
    B|--------5------8-7-5----5--4----4-------4-------|
    G|----6h7---6----7-7-5----5--5--5---5---5---5-----|
    D|--7------------------7--4--3--------------------|
    A|------------------------------------------------|
    E|------------------------------------------------|
    
  • +
    ¡Colabora con nosotros!
    Envíanos tu versión de esta canción

Letra de Jodido Noviembre
Estrofa
Bridge 1
Estribo
Mandale un mail a los Caballeros!!!!!



© LaCuerda.net · Aviso Legal · Privacidad