Acordes de Guitarra » B »Burdel King » La luna en ti (Tab)

La luna en ti
Burdel King

Letras, Acordes y Tabs para Guitarra, Bajo y Ukulele

  • MI princesa
    
    disfruten la cancion...
    
    comentarios, dudas, quejas y peticiones en mi correo.
    
    
    Intro:
    
     F  C  Dm  Bb
     F  C  Dm  Bb
    
    Verso:
    F            C                    Gm
    Cuando al amor se le muda la piel
            Bb               F
    A la rutina la cara se ve
               C                   Dm
    Si una sonrisa se viste de hiel
                 Bb     C
    
  •   Asus#
    e--1----|
    B--1----|
    G--3----|
    D--3----|
    A--1----|
    E--1----|
    
       F     C       F       Asus#
    e--------------------------------------------
    B--------------------------------------------
    G---------2-5---5-3-2-------------3--3-2-----
    D-/3-3-3-5-------------5-0-0-0-2-3--------5-3
    A--------------------------------------------
    E--------------------------------------------
    
       F     C     Dm    Asus#
    e--------------------------------------------|
    B----------------3-55-5/6~-1-1/3~------------|
    G---------2-5--5-----------------------------|X2
    
  • E|--------------------------||---------------------------||
    B|--------------------------||---------------------------||
    G|------------2/5--5-3-2----||-------------3--3-2--------||
    D|--3--3--3-5------------5--||-0--0--0-2-3--------5-3-3--||
    A|--------------------------||---------------------------||
    E|--------------------------||---------------------------||
    
    E|----------------------------||
    B|---------1/3-5-5-5/6-5---3--||
    G|-----2/5---------------5----||
    D|-3-5------------------------||
    A|----------------------------||
    E|----------------------------||
    
        F           C              Gm          Bb         F
    E|--------------------------||---------------------------||
    B|--------------------------||---------------------------||
    G|------------2/5--5-3-2----||-------------3--3-2--------||
    D|--3--3--3-5------------5--||-0--0--0-2-3--------5-3-3--||
    A|--------------------------||---------------------------||
    
  • +
    ¡Colabora con nosotros!
    Envíanos tu versión de esta canción

Letra de La luna en ti
disfruten la cancion...
comentarios, dudas, quejas y peticiones en mi correo.
Verso:
Cuando al amor se le muda la piel
A la rutina la cara se ve
Si una sonrisa se viste de hiel
Es muy mal asunto, amor.
Pre-Coro:
Te prometo que cada beso
Un contrato indefinido será
Quiero beber de tus miradas
Quiero envejecer junto a ti.
Bajaré hasta el mismo infierno para hacerte feliz
Seré el sol en tu invierno. Seré la luna en ti.
Verso:
Cuando el silencio se acuesta entre dos
Nacen fronteras sobre el edredón.
Cuando a los besos se les ve la piel
Hay que volver al ayer.
Pre-Coro:
Hoy la luna me ha contado
que duermes siempre bajo su luz,
su vestido me ha prestado,
voy a ser la luna en ti.
Bajaré hasta el mismo infierno para hacerte feliz
Seré el sol en tu invierno. Seré la luna en ti.
Volaré hasta el fin del mundo, para traer su luz,
no importa si me hundo, ¡Mi brújula eres tú!
Soñaré besos que he olvidado en un rincón de ti
Tu alma es mi despensa quiero comer de ti.
Volaré hasta el fin del mundo, para traer su luz,
no importa si me hundo, ¡Mi brújula eres tú!
Bajaré hasta el mismo infierno para hacerte feliz
Seré el sol en tu invierno. Seré la luna en ti.

Video de La luna en ti
[]




[La luna en ti chords][La luna en ti cifra]
© LaCuerda.net · aviso legal · privacidad · es · en · pt · contacto