Tablatura para Guitarra de Los Bunkers: Llueve sobre la ciudad
Conexión · Inscripción
Letras y Acordes
Pantalla Completa
Imprimir
Versión Texto
Añadir Favorito
Otras Versiones

Mostrar Diagramas
Desfile Automático
Manipular Acordes
Formato del Texto


Llueve sobre la ciudad(TAB)

Los Bunkers

calidad:
bunk0426
AUTOR: Durán / Durán
ALBUM: Vida de Perros (2005)
Enviado por Sebastian
Llueve sobre la ciudad solo tab.

Saludos!!
Bueno aquí les dejo el solo de la canción.
Este esta hecho para piano,
pero aquí lo transformé a guitarra y suena bastante bien.


|-------------------3-5-3--8-10-11/12--
|---------------3-5--------------------
|---------2-4-5------------------------
|---2-5-2------------------------------
|--------------------------------------
|--------------------------------------

12-11----11-10-------------------------15-17-
------13-------13-10-13-10------10-13-15-17-------
---------------------------9-12-------------------
--------------------------------------------------
--------------------------------------------------
--------------------------------------------------

---12/17-17-17-17-17-8----8----11-10-8--------
-----------------------10---10--------10-8-10-
----------------------------------------------
----------------------------------------------
----------------------------------------------
----------------------------------------------

------------------------------------------8-10-10-8-10-8
-----------13--10--13--10--13--10--10-8-10--------------
9-9-12-9--10--10-10--10-10--10---------------------
---------------------------------------------------------
---------------------------------------------------------
---------------------------------------------------------

*En la ultima parte se tocan los trastes 10 y 13,
y luego 10 y 10 en las cuerdas 2 y 3. Puede que alla
una confusion porque se corre un poco la tab al
publicarse.
Este fichero es trabajo propio de su transcriptor y representa su interpretación personal de la canción. El material contenido en esta página es
para exclusivo uso privado, por lo que se prohibe su reproducción o retransmisión, así como su uso para fines comerciales.

© LaCuerda.net · Aviso Legal · Privacidad