Acordes de Guitarra » B »Bulldog » Verano (Tab)

Verano
Bulldog

  • Letra y Acordes
    Intro : G | Bm | C | D
    
    
    G             Bm           C                 D
    Solo en una semana y se volo la ciudad ya esta con tantas cosas
    El ruido de la calle que rebota el hombre sueña y la mujer lloro
    -
    Una luz abrio la bienvenida en un callejon de oscura sensacion
    Y en los ojos vivis esa emocion, y el clasico Sex Pistols en la pista
    
    
    
    Estribillo:
    
    ----------------------------------------------------------------------
    
    C            D            Bm                    Em                 C
    Dueño del espacio y del momento, no me aguardan ya los muros ni lamentos
            D             G
    Mido, apunto y luego voy
    
  • Tablatura
                G                B
    e|--------------------------------------------------------|
    B|----------------12--------------------------------------|
    G|-12-14p12-14b16----14b16---14b16r14-12----12------12-14-|
    D|---------------------------------------14------14-------|
    A|--------------------------------------------------------|
    E|--------------------------------------------------------|
        C                                   D
    e|--------------------------------------------------------------------|
    B|--------15-------15-------15-------15-------15-------15-------------|
    G|--14b16----14b16----14b16----14b16----14b16----14b16----14b16r14----|
    D|-----------------------------------------------------------------12-|
    A|--------------------------------------------------------------------|
    E|--------------------------------------------------------------------|
    
    
    solo 2
             G               B               C               D
    e|---------------------------------------------------------------------|
    B|---------------------------------------------------------------------|
    
  • +
    ¡Colabora con nosotros!
    Envíanos tu versión de esta canción

Letra de Verano
El ruido de la calle que rebota el hombre sueña y la mujer lloro
-
Una luz abrio la bienvenida en un callejon de oscura sensacion
Y en los ojos vivis esa emocion, y el clasico Sex Pistols en la pista
Estribillo:
Dueño del espacio y del momento, no me aguardan ya los muros ni lamentos
Mido, apunto y luego voy
Tengo un amigo cerca, un arbol y un motor
Calla, despierta, sueña un rock.
Estrofa (Con quintas) Empieza haciendo F#-G | F#-G
Estribillo
Estribillo
Sueña un roooooooooooooooooooooooock x4
Estribillo (Acustico)
e|-0-|
B|-3-|
G|-2-|
D|-0-|
A|-0-|
E|-2-|
Compren el disco !



© LaCuerda.net · aviso legal · privacidad · contacto