Acordes de Guitarra » B »Bulldog » Pasos perdidos (Tab)

Pasos perdidos
Bulldog

  • Letra y Acordes
    Am        Dm           E               Am
    Un amigo vagabundo me dijo una gran verdad
    q las almas son el refugio de tan grande soledad
    q una noche pude durar un siglo y segundos una eternidad
    vio al hombre dirigirse sin rumbo, matandose por matar
    
    
    (estribillo)
    Dm                    G             C            Am
    y en el salon de los pasos perdidos, una historia mas
    Dm                 G           C            E
    un paisaje sin firmamentos, cuanta obscuridad
    
    flores secas q estallan cerca, d algun funeral
    ojos ciegos q ven mas lejos del propio mas alla
    vio una casa con espiritus dentro tratndose d escapar
    a viajar por el infinito, viajar y no regresar
    
    (estribillo)
    y en el salon de los pasos perdidos, una historia mas
    
  • Tablatura
    otra del ultimo, me re gaste con este tema.. esta casi todo, los arreglos
    que hace la viola arriba del cantante y los dos solos...
    
    
    arpegio (lo hace en toda la cancion menos en el estribillo)
    e|------------------------------------0--------------------|
    B|-------0-1-0-----------3--------------0---0-------0-1----|
    G|-----2-------2-------2---2---2----------0-------2-----2--|
    D|---2-----------2---3-------3------2-----------2----------|
    A|-0------------------------------------------0------------|
    E|-----------------1--------------0------------------------|
    
    intro (sobre el arpegio)
     (0:13)
    e|-5-------------------------------|
    B|-5-------------------------------|
    G|-5-------5---5-7-5---5h7-5-------|
    D|-7-----7---7---------------7-5-7-|
    A|-7-------------------------------|
    E|-5-------------------------------|
    
    
    e|-------------------------------------------------|
    B|-5-6-5-6-6h8-6-5-5h6-5---------------------------|
    G|-----------------------7-5---5-7-5-4-4h5-4-------|
    D|----------------------
  • +
    ¡Colabora con nosotros!
    Envíanos tu versión de esta canción

Letra de Pasos perdidos
Un amigo vagabundo me dijo una gran verdad
q las almas son el refugio de tan grande soledad
q una noche pude durar un siglo y segundos una eternidad
vio al hombre dirigirse sin rumbo, matandose por matar
(estribillo)
y en el salon de los pasos perdidos, una historia mas
un paisaje sin firmamentos, cuanta obscuridad
flores secas q estallan cerca, d algun funeral
ojos ciegos q ven mas lejos del propio mas alla
vio una casa con espiritus dentro tratndose d escapar
a viajar por el infinito, viajar y no regresar
(estribillo)
y en el salon de los pasos perdidos, una historia mas
vacaciones en el infierno
fatal claridad
(estribillo)
y en el salon de los pasos perdidos, una historia mas
un paisaje sin firmamentos
cuanta obscuridad
Las historias q el ha vivido, por siempre en mi rondaran
hoy la llevo en lo profundo y olvido, mil veces al despertar
pasan horas y el fuego encendido, clienta la soledad
es un perro gris q sigue dormido, amigo fiel si los hay
(estribillo)
y en el salon de los pasos perdidos, una historia mas
esta noche te quiero al lado mio
cuanta soledad



© LaCuerda.net · aviso legal · privacidad · contacto