Acordes de Guitarra » B »Bulldog » Atacado (Tab)

Atacado
Bulldog

Letras, Notas, Punteos, Tablaturas y Acordes de Guitarra (Tabs & Chords)

  • Letra y Acordes
    INTRO:C# A C# B C# A F# B
    
    C#          A                    C#  
    Casi como afuera de un sueño estoy
              B                  C#
    inundado con recuerdos del ayer 
                      A               F#  
    sueños que me invitan una y otra vez
                   B             C#
    sueños que no confian en poder
    C#          A                    C# 
    hace cuatro años que te vi crecer 
              B                  C#
    hace cuatro años que te vi nacer
                      A               F#  
    y puedo darte todo loque vos tenes
                   B                   E
    y puedo tener todo lo que vos queres
                A              E
    casi casi nada me cierra aqui
    
  • Tablatura
    INTRO
    e|------------------------------------------|
    B|--------9--------9------------------------|
    G|-11(12)---11(12)---9-11-9----9-11-11-9----|
    D|--------------------------11-----------11-|
    A|------------------------------------------|
    E|------------------------------------------|
    
    e|---------------------------------------|
    B|----------9-10-12-10-9-10--12-10-9-----|
    G|9-11-9-11--------------------------11-9|
    D|---------------------------------------|
    A|---------------------------------------|
    E|---------------------------------------|
    
    
    SOLO
    e|------------------------------------|
    B|------------------------------------|
    G|-11-11-11-9-9-9-8-8-8-8-9--11-11-11-|
    D|------------------------------------|
    A|------------------------------------|
    E|------------------------------------|
    
    e|------------------------------------------|
    B|------------------------------------------|
    G|9-9-9-8-8-8-8---11-11-11-9-9-9-8-8-8-9-11-|
    D|--------------9---------------------------|
    A|-------------------------
  • +
    ¡Colabora con nosotros!
    Envíanos tu versión de esta canción

Letra de Atacado
Casi como afuera de un sueño estoy
inundado con recuerdos del ayer
sueños que me invitan una y otra vez
sueños que no confian en poder
hace cuatro años que te vi crecer
hace cuatro años que te vi nacer
y puedo darte todo loque vos tenes
y puedo tener todo lo que vos queres
casi casi nada me cierra aqui
las palabras que te dije al fin
no llegaron a buen puerto jamas
las escuche yo y nadie mas
me siento como un ciego perdido aca
adentro de una jaula con oro y grass
me faltan unas cosas para seguir
que aun yo tengo porvenir
Sigue todo igual

Videos de Atacado
[ver más videos]

[ver todas las canciones]


© LaCuerda.net · Aviso Legal · Privacidad
DINAMICO