Acordes de Guitarra » B »Bulldog » 2 de corazón (Tab)

2 de corazón
Bulldog

  • Letra y Acordes
    Intro:  ( C  G  Am  Am ) x2 ( Dm  Am  G ) x2
    Nota: La Intro en 2da guitarra se toca 
    con acordes de Ska 
    
    C    G        Am
    Ojalá que sea verdad
    que el dolor no vuelva más.
    
    Dm  Am              G
    Todo silencio no otorga
    un rato para pensar.
    
    C  G               Am
    El miedo impide pensar
    relación para empezar.
    
    Dm     Am            G
    Empezar todo distinto aquí
    que las diferencias pueden morir.
    
    
  • Tab p/Bajo
    El tema es bastante fácil, tiene algunas variaciones con las octavas nomás.
    
    El bajo arranca 22 segundos después de la guitarra
    
    
      C       G         A         C        G         A
    G|-------------------------|----------------------------------------
    D|-------------------------|----------------------------------------
    A|-3-----------------------|---3------------------------------------
    E|---------3---------5-----|------------3---------5--------5-5-5-5--
    
        D       A        G
    G|----------------------------------|x2
    D|----------------------------------|
    A|-5-5-5-5--------------------------|
    E|---------5-5-5-5--3-3-3-3-3-3-3-3-|
    
    
        C       G         A                    D        A            G
    G|-----------------------------------x2|-----------------------------------x2|
    D|----------5-5-5-5--7-7-7-7-7-7-7-7---|----------7-7-7-7--5-5-5-5-5-5-5-5---|
    A|-3-3-3-3-----------------------------|-5-5-5-5-----------------------------|
    E|-------------------------------------|----------------
  • +
    ¡Colabora con nosotros!
    Envíanos tu versión de esta canción

Letra de 2 de corazón
con acordes de Ska
Ojalá que sea verdad
que el dolor no vuelva más.
Todo silencio no otorga
un rato para pensar.
El miedo impide pensar
relación para empezar.
Empezar todo distinto aquí
que las diferencias pueden morir.
La situación no esta muy bien
a simple vista puedes ver.
Ver para creer ya lo escribí
y no es una frase para reír.
Nada antes me hacía feliz
tenía sangre dentro de mi.
La soledad me hizo crecer así
la navidad no es linda para mi.
Y vender a mi niño, ya no tiene sentido
puede ser un bandido, o un corazón herido.
Pero es bueno hoy, más que la verdad
para hacerle bien, conserva tu lugar,
déjalo actuar...
Ni loco pienso abandonar
este castillo de felicidad
el que tanto esfuerzo costo levantar
y en silencio lágrimas vi rodar
hoy sentado hay tranquilidad
sonrisas, guiños de complicidad
una mirada puede explicar
lo que un millón de palabras no podrán
y vender a mi niño, ya no tiene sentido
puede ser un bandido, o un corazón herido
ya pasó el dolor, no apuestes al rencor
que esta en juego hoy, más que una ilusión
2 de corazón......
ACORDES DE SKA

Bueno esta es mi segunda tabulación, espero que les sirva,
y se la quiero dedicar a mi familia, a los
pibes de Bulldog que son unos capos, y a todos los que siguen
al PERRO por el país.... en especial a “Los Pibes de Castelar” (Que grande nuestro trapo
siempre presente!!!!!) Aguante BULLDOG y AEROVENTILAS Punk Rock!!!!!!
PD: Bebe gracias por mandarnos la foto que nos sacaste en Mar de Ajó... sos un grande!!!!



© LaCuerda.net · aviso legal · privacidad · contacto