Acordes de Guitarra » B »Buitres » Te Llevo en el Sentimiento (Tab)

Te Llevo en el Sentimiento
Buitres

  • C#m A E   -   Ab C#m B A
    
    
    Verso 1:
           E                           Abm
    En la luz de aquel domingo cuando yo te conoci
          A             E             Abm
    tus colores en el viento fueron mucho para mi
           A           F#            C#m    B     A
    y nació este sentimiento que ya no puedo parar
           C#m            A          E
    esta suelto y corre como un animal
    
    
    Verso 2:(igual que el 1)
    Tu nombre vive en mi sangre enredado al corazon
    y yo sigo condenado al perfume de tu amor
    es la fiebre a cada instante mi pasion no puede mas
    es por eso que no te puedo dejar
    
    
  • Bueno hola ahí bahh!!!
    INTRO
    
    G-----------------------------
    D-----------------------------
    A--4-4-44-4—--0-0-0-0-0-0-0-0-
    E-----------------------------
    
    G-----------------------------
    D-----------------------------
    A--7-7-7-77-777---------------
    E----------------4-4-4-44-444-
    
    G----------------------------------
    D----------------------------------
    A---4-4-4-4—2-2-2-2-0-0-0-0-0-0-0-0
    E----------------------------------
    
    PARTE A (x2)
    En la luz de aquel domingo..(por suerte esta no la cantó jaja)
    (hace 16 tiempos bien rápidos)
    G------------------------------------
    D------------------------------------
    A—7(x16)-----------0000-7777---------
    E-----------4(x16)-----------4(x16)--
    
    G-------------------------------------------
    D-------4444--------------4444--------------
    A--0000------00--22-0000-------0000-7(x16)--
    E-------------------------------------------
    
    PARTE B(x4)
    Te llevo en mi sentimiento…
    
    Esa bajada de 4-4-432 estaria sustituyendo otros -2222-
    Osea se puede hacer y queda bi
  • +
    ¡Colabora con nosotros!
    Envíanos tu versión de esta canción

Letra de Te Llevo en el Sentimiento
Verso 1:
En la luz de aquel domingo cuando yo te conoci
tus colores en el viento fueron mucho para mi
y nació este sentimiento que ya no puedo parar
esta suelto y corre como un animal
Verso 2:(igual que el 1)
Tu nombre vive en mi sangre enredado al corazon
y yo sigo condenado al perfume de tu amor
es la fiebre a cada instante mi pasion no puede mas
es por eso que no te puedo dejar
Estribillo:
Te llevo en mis sentimientos te llevo en mi corazon
entre las luces y sombras sigue ardiendo esta pasion
Te llevo en mis sentimientos te llevo en mi corazon
y por eso ahora siento que yo me muero sin vos
y aunque todos digan
que estoy loco
te sigo siempre.....
Verso 1
Estribillo
(con las notas del estribillo)
http://www.acordes.8m.com




[Te Llevo en el Sentimiento chords][Te Llevo en el Sentimiento cifra]
© LaCuerda.net · aviso legal · privacidad · es · en · pt · contacto