Acordes de Guitarra » B »Buitres » Cada vez te quiero más (Tab)

Cada vez te quiero más
Buitres

  • Letra y Acordes
    Intro:G C G D G C G
          G C G D G C G D
    
    Parte 1: repite (G C G D)
    Vas a despertar al fin
    con el tibio sol un dia de abril
    
    Parte 2:
    B                    C      
    Tambien aqui los niños juegan
    G
    crecen flores en la tierra
    B                 C
    y esta la mujer mas linda
    D
    esperando en la vereda
    
    Parte 1:
    Suerte que llegaste al fin
    me dijo, y conta lo que ves aqui
    
  • Tab p/Bajo
    En La parte 1:
    g------------------------
    d------------------------
    a--------3-0------5-3-0--
    E---3-3-3----3-3-3------3
     
    En la parte 2:
    g---------------------------------------------
    d---------------------------------------------
    a-2-2-2-3-3-3------------2-2-2-2-3-3-3-3-5-5-5
    E-------------3-3-3-3-------------------------
    
    En el Coro:
    g------------------------
    d------------------------
    a--------3-3-3---5-3-0--
    E---3-3-3----------------
    
    Despues del Coro:
    g------------------------------
    d------------------------------
    a-----------5-3-0---------5-3-1  Se repite dos veces pero a la 2da vez
    E---3-3-3-3-------1-1-1-1------       termina con: g--------
                                                       d--------
                                                       a----3-3-              
                        			           E--------
    El solo del bajo son dos veces la parte 1
     y esto varias veces  g-------------------------------------- 
                          d---------
  • +
    ¡Colabora con nosotros!
    Envíanos tu versión de esta canción

Letra de Cada vez te quiero más
Parte 1: repite (G C G D)
Vas a despertar al fin
con el tibio sol un dia de abril
Parte 2:
Tambien aqui los niños juegan
crecen flores en la tierra
y esta la mujer mas linda
esperando en la vereda
Parte 1:
Suerte que llegaste al fin
me dijo, y conta lo que ves aqui
Parte 2:
los muchachos en la esquina
tetra brik y marihuana
canciones de amor eternas
los sabados en la cancha
Estribillo:
Cada vez te quiero mas
Cada vez te quiero mas
Cada vez te quiero mas
Cada vez te quiero mas y te sigo a donde vas
Barrios que te ven pasar
vuelven a nacer hijos de verdad
los muchachos en la esquina
dejan flores en el alma
canciones de amor eterno
los sabados en la cancha
Estribillo
Punteo del bajo
Cada vez te quiero mas ....



© LaCuerda.net · aviso legal · privacidad · contacto