Acordes de Guitarra » B »Bryndis » Tu voz y mi dolor (Tab)

Tu voz y mi dolor
Bryndis

Letras, Acordes y Tabs para Guitarra, Bajo y Ukulele

  • e|--5h6p5----------5s8--8h10p8----8--10-12-12h13-13-13-12-10-8-6--|
    B|--------6------6-------------10---------------------------------|
    G|----------5--5--------------------------------------------------|
    
    
    e|--10h11p10--8h10p8-6h8p6--5----------------------|
    B|-----------------------------6-------------------|
    G|--------------------------------5----------------|
    D|-----------------------------------7-------------|
    A|--------------------------------------8------8---|
    E|-----------------------------------------10------|
    
      F                   C
    Quiero que vuelvas conmigo
    A#               C
    Quiero volver a sentir
    A#                F
    Ese tu pelo tan suave
           G             C
    Y tu cuerpo que me hizo feliz
    
  • +
    ¡Colabora con nosotros!
    Envíanos tu versión de esta canción

Letra de Tu voz y mi dolor
Quiero que vuelvas conmigo
Quiero volver a sentir
Ese tu pelo tan suave
Y tu cuerpo que me hizo feliz
Tan solo una esperanza
De volver a sonreír
Y decir que te quiero
Vida mía ven a mí
Porque me muero vivir
Ya sin tu amor
Tu voz y mi dolor
Los llevo en mi corazón
Cariño regresa
Por favor
Ven dame tu calor
Y el fuego de tu amor
Tan solo una esperanza
De volver a sonreír
Y decir que te quiero
Vida mía ven a mí
Porque me muero vivir
Ya sin tu amor
Tu voz y mi dolor
Los llevo en mi corazón
Cariño regresa
Por favor
Ven dame tu calor
Y el fuego de tu amor
fin




[Tu voz y mi dolor chords][Tu voz y mi dolor cifra]
© LaCuerda.net · aviso legal · privacidad · es · en · pt · contacto
DINAMICO