Acordes de Guitarra » B »Brian Adams » Lo Hago Por Tí (Tab)

Lo Hago Por Tí
Brian Adams

Letras, Acordes y Tabs para Guitarra, Bajo y Ukulele

  • C                G
    Mira en mis ojos y veras 
    F                 G
    lo que siento por ti
    C               G
    explorad en tu ser
             F               C    G
    me hallarás, no buscaras más
    Dm               C    Dm  C
    dime que sientes mi calor
          Dm          C    Dm
    y que correspondes mi amor
              C/G
    sabes que si
               G              C
    todo lo que hago lo hago por ti
    
    mira mis ojos y sabras 
    que nada te ocultan
    son como tu ves, tomame,
    
  •               D      A
    Mira en mis ojos y veras 
     G              A
    que siento por ti
      D             A
    explorad en tu ser
         G            D       A  
    me hallarás, no buscaras más
    
     Em                   A
    dime que sientes mi calor
      Em                   A
    y que correspondes mi amor
              D
    sabes que si
                  A   G   A          D
    todo lo que hago --- lo hago por ti
    
    mira mis ojos y sabras 
    que nada te ocultan
    
  •  C                  G        F                  G  
    Mira en mis ojos, y' veras, lo que siento por ti 
         C              G             
    Explora en tu ser, EXPLORA en tu alma, 
              F                  C            F
    Y cuando me encuentres ahi no buscaras mas.
     Dm         C         Dm     
    Dime que, sientes mi calor,
     Dm              C            Dm
    Y tambien que correspondes mi amor.
                  C                   G           C
    Sabes que es cierto, todo lo que hago, lo hago por ti.
    
           C          G           
    Mira mis ojos, y' sabras, 
     F                G
    que NO hay nada que ocultar.
                C       G           
    Son como tu ves, tomame, 
     F                 C       G
    
  • ----3-------3-------3-----------| ----2-------2-------2---2-5-5--- |
    --------2-------2-----------0---| --------2-------2--------------- |
    0-----------------------0-------| 2------------------------------- |
    
    *       *       *       *       | *       *       *       *        |
    3---------------3---------0-2---| 0---------------0-------0---0--- |
    ----0-------0-------0---3---3-3-| ----2-------2-------2-------2--- |
    0-------0-------0-------2-----2-| --------2-------2-------2------- |
    --------------------------------| -------------------------------- |
    
    *       *       *       *       | *       *       *       *        |
    2---------------2-------2-3-3-2-| 0---------------0-------0-5-5-0- |
    ----3-------3-------3-----------| ----2-------2-------2---2-5-5--- |
    --------2-------2-----------0---| --------2-------2--------------- |
    0-----------------------0-------| 2------------------------------- |
    
    3---------------3-------3-------| 2----0------2---0-----------0--- |
    ----0-------0-----------0-------| 3-----3-----3---2--------------- |
    0-------0-------0-------0-------| ------------2------------------- |
    ------------------------0-------| 0-----------0---2--------------- |
    
  • Bb----------------------------17----------17-------15-15---------------------|
    Gb-----14--14-14------------------14-14--------------------------------------|
    Db---------------------------------------------------------------------------|
    Ab---------------------------------------------------------------------------|
    Eb---------------------------------------------------------------------------|
    
    
    
    
    D               A        G                A
    Mira mis ojos, y veras que siento por ti
    
    Eb--------2-5-3-2----------5-5-------------------|
    Bb----------------5-------5----3-3----------5-5--|
    Gb-----------------------------------------------|
    Db-----------------------------------------------|
    Ab-----------------------------------------------|
    Eb-----------------------------------------------|
    
       D            A          G            D         A
    
  • INTRO
    D		   A		   G		    D   A
    fa#  fa# la la fa# mi  mi la la mi re  re mi fa# re fa# mi 
    
    D		   A		   G		    D   A
    fa#  fa# la la fa# mi  mi la la mi re  re mi fa# re fa# mi
    
    
                    D	  A
    Mi--raen mis o--jos y  ve-rá--ás 
    fa# sol  fa# mi re  mi re do# la
    
       G		    A
    lo que sien-to  por tí--í
    si do# re   sol sol fa# mi
    
             D	  A
    ex--plo--ra en tu se--er
    fa# sol fa# mi re do# la
    
             G                   D   A
    meha lla-rás, no bus-ca--rás má--ás
    la   la  si  do# re  sol sol fa# mi
    
        Em      D        Em      A
    di--me  que sien-tes mi  ca--lor
    fa# sol sol sol  si  la  fa# mi
    
            Em        D      Em    A
    y   que co--rres-pon-des mi a--mor
    fa# fa# sol sol  sol si  la fa# mi
    
    	    D		      A      G		  D        
    sa--bes que si  to--do lo que ha--go loha go  por ti.
    sol sol sol fa# fa# la la fa# fa# mi fa#  fa# fa# re          
    
    
    
    	       D	 A
    Mi--ra  mis o--jos y  sa-brá-ás
    fa# sol fa# mi re  mi re do# la
    
        G
  • +
    ¡Colabora con nosotros!
    Envíanos tu versión de esta canción

Letra de Lo Hago Por Tí
Mira en mis ojos y veras
lo que siento por ti
explorad en tu ser
me hallarás, no buscaras más
dime que sientes mi calor
y que correspondes mi amor
sabes que si
todo lo que hago lo hago por ti
mira mis ojos y sabras
que nada te ocultan
son como tu ves, tomame,
quisiera poder, poderte lograr
dime que sientes mi calor
nada quiero más que tu amor
sabes que si
todo lo que hago lo hago por ti
no hay amor como tu
y otro que te ame asi
no hay lugar si tu no estas
donde quisiera estar, yeah
Oh, dime que sientes mi calor
nada quiero más que tu amor
que luchar por ti,
sufrir por ti, cada día, si
oh, morir por ti
sabes que si, todo lo que hago
oh... lo hago por ti

Video de Lo Hago Por Tí
[]




[Lo Hago Por Tí chords][Lo Hago Por Tí cifra]
© LaCuerda.net · aviso legal · privacidad · es · en · pt · contacto