Acordes de Guitarra » B »Botellita de Jerez » Vete al Averno (Tab)

Vete al Averno
Botellita de Jerez

  • Tablatura
        B5    G5    E5   C#5 
    e -----------------------------------||
    B -----------------------------------||
    G -----------------------------------||
    D -4-4-4-------7-7-7-6-6-6-6-6-6-----||
    A -2-2-2-5-5-5-5-5-5-4-4-4-4-4-4-----||
    E -------3-3-3-----------------------||
                  ( X4 )
    
    Verso :
    
        B5      G5      B5      G5
    e ----------------------------------||
    B ----------------------------------||
    G ----------------------------------||
    D -4-4-4-4---------4-4-4-4----------||
    A -2-2-2-2-5-5-5-5-2-2-2-2-5-5-5-5--||
    E ---------3-3-3-3---------3-3-3-3--||
    
    Cambio :
    
  • Tablatura
    botellita de jerez
    vete al averno
                                ---------------------------------
                                         ..::RaWzzeZ::..
                                ---------------------------------
    ahi les va el solo de esta rola, que ya habian mandado lo demas ,namasfaltaba el solo
    
                                                                           /----------------
    
    ----------------------------------------------------------------------------------------
    -----------------15---------------------------------------------------------------------
    -----------16------------16--14^----16--14^-----16--14^----16--14^--16---14h-16-13h-15--
    ----14^---------------------------------------------------------------------------------
    ----------------------------------------------------------------------------------------
    ----------------------------------------------------------------------------------------
    
    
    en esta parte que marque puedes usar la tecnica
    del taping
  • +
    ¡Colabora con nosotros!
    Envíanos tu versión de esta canción

Letra de Vete al Averno
( X4 )
Verso :
Cambio :

2do Cambio

( X2 )
Todo se repite segun los tiempos , esta muy papa ,
y tambien hay partes donde usas palm mute
AGRADECIMIENTOS , SALUDOS , CORRECCIONES Y MENTADAS
ESCRIBANME
GRACIAS



© LaCuerda.net · aviso legal · privacidad · contacto
DINAMICO