Acordes de Guitarra » B »Botellita de Jerez » Alarmala de Tos (Tab)

Alarmala de Tos
Botellita de Jerez

Letras, Notas, Punteos, Tablaturas y Acordes de Guitarra (Tabs & Chords)

  • Letra y Acordes
     D          Bm
    La Lola  paciente mendigaba, 
     G         A
    sufria su jefe la obligaba, 
     D          Bm
    con ella sacaba buena lana, 
     G       A
    la pobre era jorobada.  
    
     D        Bm
    Su madre le metia al talon, 
    G                A
    era perversa y de mal corazon, 
     D            Bm
    su hermano vivia en el reventon, 
     G            A
    el era lilo amante de un panzon.      
       
      D       Bm             G              A
    Alarma, alarmala de tos, un dos tres patada y tos.  
    
  • Tablatura
        D      A      Bm     A      G              A                     X 2
    e|--14-----12-----14-----12-----10-----10-----10-----10------------|
    B|--15-----14-----15-----14-----12-----12-----12-----12------------|
    G|--14-----14-----16-----14-----12-----12-----12-----12------------|
    D|-----------------------------------------------------------------|
    A|-----------------------------------------------------------------|
    E|-----------------------------------------------------------------|
    
    
    D    A        Bm         A
      La Lola  paciente mendigaba, 
    G          A
      sufría su jefe la obligaba, 
    D     A       Bm         A
      con ella sacaba buena lana, 
    G           A
      la pobre era jorobada.  
    
    D    A     Bm             A
      Su madre la metió al talón, 
    
  • Tab p/Bajo
    bno esta es mi 1a tablatura esta muy facil
    
    Intro 0:02-0:26
    G----12----12----12----12----12----12----12----12----12----12----12---
    D-12----12----12----12----12----12----12----12----12----12----12----12
    A---------------------------------------------------------------------
    E---------------------------------------------------------------------
    
    Verso 0:30
    G------------------------------
    D------------------------------
    A--33--------------------------
    E-----33/55-33/11-11-33333333--
    
    La Lola paciente..... (hasta: la pobre era jorobada)
    G--------------------------------------------------------
    D--------------------------------------------------------
    A-3333---------------------------------------------------
    E------3333-55555555-11111111-33333333-------------------
    
    ..Su madre le metia al ....
    G-----------------------------------------------------------
    D-----------------------------------------------------------
    A--33----------------------33-------------------------------
    E-----33--55-55/11
  • +
    ¡Colabora con nosotros!
    Envíanos tu versión de esta canción

Letra de Alarmala de Tos
La Lola paciente mendigaba,
sufria su jefe la obligaba,
con ella sacaba buena lana,
la pobre era jorobada.
Su madre le metia al talon,
era perversa y de mal corazon,
su hermano vivia en el reventon,
el era lilo amante de un panzon.

Alarma, alarmala de tos, un dos tres patada y tos.
Ese dia paseaba normalmente,
cuando su padre ataco la derrepente,
violo la con un deseo demente,
y ella quiso morirse en ese instante.
Mato a su padre cuando este la seguia,
mientras su hermano con su madre le ponia,
penso que ayuda jamas encontraria,
hasta que al fin hallo un policia.
Alarma, alarmala de tos, un dos tres patada y tos.
La lola su historia lloro,
y auxilio al tira imploro,
el azul sonriendo la miro,
que creen que fue lo que paso...
siguio la ataco la golpeo la violo la y mato la, con una pistola.
Alarma, alarmala de tos, un dos tres patada y tos.

Videos de Alarmala de Tos
[ver más videos]

[ver todas las canciones]


© LaCuerda.net · Aviso Legal · Privacidad