Acordes de Guitarra » B »Botellita de Jerez » Saca (Tab)

Saca
Botellita de Jerez

Letras, Notas, Punteos, Tablaturas y Acordes de Guitarra (Tabs & Chords)

  • Tablatura
    Intro :
    
    e --------------------------------------------||
    B --------------------------------------------||
    G --------------------------------------------||
    D --------------------------------------------||
    A --------------------------------------------||
    E -0-0-0-0-0-0-0-0-0-0-0-0-0-0-0-0-0-0-0-0-0-0||
    
    riff 1
    
    e -----------|-------------------------------|----||
    B -----------|-------------------------------|----||
    G -----------|-------------------------------|----||
    D ---------2-|-------------------------------|-4--||
    A ---------0-|-------2-4-------2-4-------2-4-|-2--||
    E -0-2-3-4---|-0-2-4-----0-2-4-----0-2-4-----|----||
    
    riff 2
    
    e ---------------------------------------------||
    B ---------------------------------------------||
    G --------7---7--9---9--7---7--5---5--2---2----||
    D -7---7--7---7--9---9--7---7--5---5--2---2----||
    A -7---7--5---5--7---7--5---5--3---3--0---0----||
    E -5---5---------------------------------------||
    
          SACA         SACA        SA
  • +
    ¡Colabora con nosotros!
    Envíanos tu versión de esta canción





© LaCuerda.net · Aviso Legal · Privacidad