Acordes de Guitarra » B »Botellita de Jerez » Bueno, bueno, bueno probando (Tab)

Bueno, bueno, bueno probando
Botellita de Jerez

  • Tablatura
    Intro :
    
    al comienzo de la rola estan diciendo puras tarugadas 
    como si estuvieran probando sonido y afinacion
    pero esta rola esta chidisima y cagadisima
    
    
    Verso :
    
    e ------------------------------------------||
    B ------------------------------------------||
    G ---------------5-5-5-5-5-5----------------||
    D -5-5-5-5-5-5-5-5-5-5-5-5-5-5-5-5-5-5-5----||
    A -5-5-5-5-5-5-5-3-3-3-3-3-3-5-5-5-5-5-5----||
    E -3-3-3-3-3-3-3-------------3-3-3-3-3-3----||
    
    e -8---8---8---8---3-3-3-3--8---8---8---8--------
    B -8---8---8---8---3-3-3-3--8---8---8---8--------
    G -9---9---9---9---4-4-4-4--9---9---9---9--------
    D -10--10--10--10--5-5-5-5--10--10--10--10-------
    A -10--10--10--10--5-5-5-5--10--10--10--10-------
    E -8---8---8---8---3-3-3-3--8---8---8---8--------
    
    e -10---10---10---10-----||
    B -10---10---10---10-----||
    G -11---11---11---11-----||
    D -12---12---12---12-----||
    A -12---12---12---12-----||
    E -10---10---10---10-----||
    
    e ---------------------------------------||
    B -----
  • +
    ¡Colabora con nosotros!
    Envíanos tu versión de esta canción





© LaCuerda.net · aviso legal · privacidad · contacto