Acordes de Guitarra » B »Bobby Pulido » Desvelado (Tab)

Desvelado
Bobby Pulido

Letras, Acordes y Tabs para Guitarra, Bajo y Ukulele

  • Intro   Bm   E7   C#m   F#7   Bm   E7   A   F#7
    
      Bm                      E7
    Será fe que yo encontré,
    
    la voz de ternura,
         A                  F#7
    que me llena de placer,
    cuando la oigo hablar.
    
    Con ella me enamoré,
    aunque nunca la conocí,
    sueño en su querer,
    y en sus brazos quiero dormir.
    
      Bm
    Escucho cada día en la radio,
       E7
    seguro que la vuelvo a oír,
             F#sus4
    
  • Bm - E - A - F#7 - Bm - E - A - F#7
    
           Bm                E
    Será fe que yo encontré
    
    la voz de ternura
         A                  F#7  
    que me llena de placer,
    
    cuando la oigo hablar
    
    
          Bm             E
    por ella me enamoré
    
    yo nunca la conocí
        A               F#7
    sueño en su querer
    
    y en sus brazos quiero dormir
    
  • Bm7 - E7 - C#m7 - F#7 - Bm7 - E7 - A - F#7
    
           Bm7                E7
    Será fe que yo encontré
    
    la voz de ternura
         A                  F#7
    que me llena de placer,
    
    cuando la oigo hablar
    
    
          Bm7             E7
    por ella me enamoré
    
    yo nunca la conocí
        A               F#7
    sueño en su querer
    
    y en sus brazos quiero dormir
    
  • Bm7 - E7 - C#m7 - F#7 - Bm7 - E7 - A - F#7
    
    
    G--------------------------------------------------
    B------------------------------------------12-12-13
    e-10/12-10-9-9-10-10-9-12-12-12-10-10-9-9-9--9-----
    
    
    G--------------------------------------------------
    B--------------------------------------12-12-------
    e-9-9-12-12/14-14-14-14-12-12-10-10-9-9--9--10-12--
    
    G--------------------------------------------------
    B-----9-9-10-12-12-10------------------------------
    e-10-9------------9--12-12-12----------------------
    
    
    
           Bm7                E7
    Será fe que yo encontré
    
  • INTRO
    
          Bm                        E
    G----------------------------------------------------------
    D----------------------------------6-9---------------------
    A---------9---------9-----------7-------7--6---------------
    E---7--10-----7--10----------------------------------------
    
          C#m                        F#
    G------------------------------------------------
    D--------6--------6------------------------------
    A---4--7-----4--7------------------1-4-----1-4---
    E-------------------------------2-------2--------
    
          Bm                         E
    G-----------------------------------------------------
    D----------------------------------6-9-----6-9--------
    A---------9---------9-----------7-------7-------------
    E---7--10-----7--10-----------------------------------
    
         A                        F#
    G------------------------------------------------
    D------------------------------------------------
    A------4-7-------4-7-----------------------------
    E---5---------5---------------2--2--2-----
  • Los ritmos son sencillos y te marco donde van, toda la
    canción es un ritmo pero donde te marco con numeros van
    los breaks correspodientes, aunque es mejor que tu le
    pongas tu toque personal y pongas golpes donde quieras
    pero siempre ten cuidado de no salirte de tiempo ok??
    
    
    x - Hi hats
    C - cencerro
    t - tarola
    tc - tom chico
    tm - tom mediano
    tp - tom piso
    b - bombo
    CR - crash
    
    el ritmo basico es 
    
     xx  xx  xx  xx
       c   c   c   c
       b_b     b_b
    
    
    y los breaks tambien son sencillos
    yo encontre 3 pero puedes crear mas y darle mas ritmo
      
        1               2                3
           Cr_Cr            Cr              Cr_CR
          t              t_t              t_t  
           b__b             b               b__b 
    
    
    
    Será al fin que yo encontré
    la voz de ternura
    que me llena de placer
    cuando la oigo hablar*
    con ella me enamoré
    y aunque nunca la conocí
    sueño en su querer
    y en sus brazos quiero dormir*
    escucho cada día la radio
    seguro que la vue
  • +
    ¡Colabora con nosotros!
    Envíanos tu versión de esta canción

Letra de Desvelado
Será fe que yo encontré,
la voz de ternura,
que me llena de placer,
cuando la oigo hablar.
Con ella me enamoré,
aunque nunca la conocí,
sueño en su querer,
y en sus brazos quiero dormir.
Escucho cada día en la radio,
seguro que la vuelvo a oír,
por el cielo busco en mil estrellas,
y a la luna quiero subir.
Voy desvelado,
por esas calles esperando encontrar,
a esa voz de ángel que quiero amar,
donde andará.
Voy desvelado,
y mi deseo no me deja descansar,
porque despierto y yo me pongo a llorar,
yo seguiré, desvelado y sin amor.
Se repite desde el Intro.




[Desvelado chords][Desvelado cifra]
© LaCuerda.net · aviso legal · privacidad · es · en · pt · contacto