Acordes de Guitarra » B »Big Brother México » Big Brother VIP (Tab)

Big Brother VIP
Big Brother México

Letras, Acordes y Tabs para Guitarra, Bajo y Ukulele

  • C      Am
    21 dias, una ilusion
    C           Am      
    todos amigos, de profesion
    
    Dm            G
    un espacio en la intimidad
    Dm            G
    y sin ganas de nominar
    
    
    C                 Am      
    solo hay un baño que compartir
    C                Am      
    11 gallinas, que concentir
    
    Dm                 G
    muchos retos por superar
    Dm                 G
    sin aumento de exclusividad 
    
  • DO           LAm
    
    veintiun días, una ilusión
    DO           LAm
          
    todos amigos, de profesión
    
    FA            SOL
    un espacio en la intimidad
    FA            SOL
    
    y sin ganas de nominar
    
    
    DO                 LAm      
    sólo hay un baño que compartir
    DO                LAm      
    11 gallinas, que concentir
    
    FA                 SOL
    
  •                   C                  Am
    E|-----------------------------------------------------------------|
    B|-----------------------------------------------------------------|
    G|---0---------0--------0--------0--------2--------2--------2------|
    D|------2---------2--------2--------2-------2--------2--------2----|
    A|-3--------3--------3-------3---------3--------3--------3---------|
    E|-----------------------------------------------------------------|
                      C                  Am
    E|----------------------------------------------------------------|
    B|----------------------------------------------------------------|
    G|---2--------0--------0--------0---------0-----------------------|
    D|-----2---------2--------2--------2---------2--------------------|
    A|-3--------3--------3-------3---------3--------------------------|
    E|----------------------------------------------------------------|
    Este tab lo puedes repetir toda la cancion .. 
    unicamente en las partes que lleva   C   y   Am pero..
    donde cambia A  F  y G puedes hacer el arpegeo con las notas
    correspondientes..
    
    
    
  •         C                Am
    ----------------I-------------------I
    ----------------I-------------------I
    -----0------0---I------2-------2----I
    -------2------2-I--------2-------2--I
    ---3------3-----I----0-------0------I
    ----------------I-------------------I
    
    
     Entra la segunda guitarra:
    
     (guitarra 2)
         C(varias veces arriba y abajo) Am
    -----0- - - - >---------I-----0- - - - >---I
    -----1- - - - >---------I-----1- - - - >---I
    -----0- - - - >---------I-----2- - - - >---I
    -----2- - - - >---------I-----2- - - - >---I
    -----3- - - - >---------I-----0- - - - >---I
    -----0 - - - ->---------I-----0- - - - >---I
    
    
  • +
    ¡Colabora con nosotros!
    Envíanos tu versión de esta canción

Letra de Big Brother VIP
21 dias, una ilusion
todos amigos, de profesion
un espacio en la intimidad
y sin ganas de nominar
11 gallinas, que concentir
muchos retos por superar
sin aumento de exclusividad
esto es big brother VIP!
brother vip brother vip
brother vip brother vip.....
sin maquillaje, sin personajes
sin un libreto, y sin apuntador
sin tener que ser buenos ni malos
simplemente vivir como hermanos
asi es nuestra esencia, sin mucha ciencia
nos queremos solo divertir, aunque el rating alla que subir
esto es big brother VIP!
brother vip brother vip
brother vip brother vip...
sin tener que ser buenos ni malos
simplemente vivir como hermanos
asi es nuestra esencia, sin mucha ciencia
nos queremos solo divertir, aunque el rating alla que subir
esto es big brother VIP!
brother vip brother vip
brother vip brother vip.
(rap de Facundo)
ven ten toma, la vida es una broma
el tiempo no perdona , punto y coma
coma, coma toma bebes y haces lo que quieres
quien quiere caminar? quien quiere nadar?
te quieres broncear? puedes escuchar el minimo secreto
y me ves me ves me controlas en la obscuridad, pero a ver...
...en que estoy pensando?!
(el coro tambien se oye bien si lo tocas de la siguiente manera)
brother vip brother vip
brother vip brother vip.

Video de Big Brother VIP
[]




[Big Brother VIP chords][Big Brother VIP cifra]
© LaCuerda.net · aviso legal · privacidad · es · en · pt · contacto