Tablatura para Guitarra de Bersuit Vergarabat: Yo tomo
Conexión · Inscripción
Letras y Acordes
Pantalla Completa
Imprimir
Versión Texto
Añadir Favorito
Otras Versiones

Mostrar Diagramas
Desfile Automático
Manipular Acordes
Formato del Texto


Yo tomo(TAB)

Bersuit Vergarabat

calidad:
bers0155
AUTOR: Gustavo Cordera, Pepe Céspedes, Carlos Martin, Oscar Righi, Juan Subirá, Alberto
ALBUM: Libertinaje
Enviado por Cesar
Esta es mi version de los arreglos de “Yo tomo” de Beruit
Vergarabat, espero les sean de ayuda y los utilicen bien.

Dedicada a Ernesto Morales Martinez que me ha enseñado mucho de
este arte que es tocar la guitarra.

*********

Intro:

E|-----------------------------------|-3---|
A|-0-0-0-3-5-5-5-3-0-0-0-3-5-5-5-3-0-|-3-0-|
D|-----------------------------------|---0-|
G|-----------------------------------|-----|
B|-----------------------------------|-----|
e|-----------------------------------|-----|

E|-----------------------------------|---0-|
A|-0-0-0-3-5-5-5-3-0-0-0-3-5-5-5-3-0-|-0-2-|
D|-----------------------------------|-0-2-|
G|-----------------------------------|-----|
B|-----------------------------------|-----|
e|-----------------------------------|-----|

Se repite 2 veces

************

Requinto Guitarra
(Esta es la forma mas apta, pero si no la pueden tocar, pasenla
 a la mitad del diapasón)


E|-----------------------------------------------------|------------|
A|-----------------------------------------------------|------------|
D|-----------------------------------------------------|------------|
G|-----------------------------------------------------|------------|
B|----------------------------------------------17-----|-17------15-|
e|-20-19-17-20-19-17-20-19-17-20-19-17-20-19-17----13^-|---13-12----|

E|-----------------------------------------------------|-----------|
A|-----------------------------------------------------|-----------|
D|-----------------------------------------------------|-----------|
G|-----------------------------------------------------|-----------|
B|----21-17----21-17----21-17----21----------17--------|-----------|
e|-19-------19-------19-------19----12-19-16----20-19^-|-17-19-20^-|

E|-----------------------------------------------------|--------------
A|-----------------------------------------------------|--------------
D|-----------------------------------------------------|--------------
G|-----------------------------------------------------|--------------
B|-----------------------------------------------------|--------------
e|-20-19-17-20-19-17-20-19-17-20-19-17-20-19-17-20-21^-|-20-19-20-21^-

E|-----------------------------------------|-----------|
A|-----------------------------------------|-----------|
D|-----------------------------------------|-----------|
G|-----------------------------------------|-----------|
B|----------------------------------21-----|-17--------|
e|-22-21-20-21-20-19-20-19-17-19-17----17^-|----13-12^-|

*********

Solo:

E|---------|---------|----------|----------|
A|---------|---------|----------|----------|
D|---------|---------|----------|----------|
G|---5-----|---------|----------|----------|
B|-1---3-5-|-1-1-3-5-|-3-3-5-6--|-3-3-5-6--|
e|-5-5-7-8-|-5-5-7-8-|-7-7-8-10-|-7-7-8-10-|

E|--------------------------------|
A|--------------------------------|
D|--------------------------------|
G|--------------------------------|
B|-9-9-9-9-12-12-12-10-9-10-8-6-5-|
e|-7-7-7-7-10-10-10-8--7-8--7-5-4-|

A|---|-------------|-------------|-------------|------------------|
E|---|-------------|-------------|-------------|------------------|
D|---|-------------|-------------|-------------|------------------|
G|-2-|-2---------2-|-2---------2-|-2---------2-|-2--------------8-|
B|---|---1---1-----|---1---1-----|---3---3-----|---3----3-----5---|
e|---|-----0---0---|-----0---0---|-----1---1---|------1---1-1-----|

E|-------|---------------------|
A|-------|---------------------|
D|-------|---------------------|
G|-------|---------2-2-4-------|
B|---4-3-|-3---3-1-------1-3---|
e|-0-----|---0---------------0-|

*************

Al final repiten el intro.
Este fichero es trabajo propio de su transcriptor y representa su interpretación personal de la canción. El material contenido en esta página es
para exclusivo uso privado, por lo que se prohibe su reproducción o retransmisión, así como su uso para fines comerciales.

© LaCuerda.net · Aviso Legal · Privacidad