Acordes de Guitarra » B »Bersuit Vergarabat » Tuyu (Tab)

Tuyu
Bersuit Vergarabat

Letras, Acordes y Tabs para Guitarra, Bajo y Ukulele

  • D) -------------------1---------------------------------
    A) -------------3--3----3--3--3--------1-1-0---1-1-0----
    E) -------------------------------3---------------------
    
    D) -------------------1---------------------------------
    A) -------------3--3----3--3--3--------1-1-0---1-1-0----
    E) -------------------------------3---------------------
    
    D) ---------------/2------------------------------------
    A) --------3--3----------3--3--3------1--1-0---1--1-0---
    E) --------------------------------3--------------------
    
    D) --------------/2-------------------------------------
    A) -------3--3----------3--3--3------1--1--0--1--1--0---
    E) -------------------------------3---------------------
    
    
    
    C5                                 D#5
    A la escondida siempre cuento yo, sino me lastiman;
    
  • +
    ¡Colabora con nosotros!
    Envíanos tu versión de esta canción

Letra de Tuyu
A la escondida siempre cuento yo, sino me lastiman;
en los picados me mandan al arco por gordo tarado;
la botellita siempre apunta a otro, basta de atentados.
Conseguí una novia con lentes y aparatos,
quiero jugar con mi prima al doctor, pero nunca viene;
todos los nenes tienen el pito más grande que yo. (¡sí!)
Ciencias naturales es mi vocación porque mato sapos.
Así me entreno para matarme en mi octavo
Riff:
Tuyu, tuyu, happy birthday tuyu
tuyu, tuyu, happy birthday tuyu
Bizco, chicato le dicen en la escuela.
Nadie me quiere.
Él toco a esa mujer.
Yo no fui.
Tiene lepra o es viruela.
¡No, es acné!.
Me parece que es comilón.
Quién, ¿yo?
Ese del pueblito debe ser un drogadicto,
es aconsejable eliminarlo de una vez.
Mátenlos, amárrenlos, están muy sacados.
Así fue como festejé mis catorce.
(Riff)
Tuyu, tuyu, happy birthday tuyu
tuyu, tuyu, happy birthday tuyu
Tuvimos un presidente, digno en Argentina,
que ordenó con su grandeza al organizar. ¡Vamos!
Se acabaron los subversivos: ¡Ahora a trabajar!
La gente lo vitoreaba en las plazas,
..Y mi novia sin saberlo quería que sea como él:
fiel, disciplinado, católico, educado,
Como vio que no podía me dejó por infractor.
Tateti, Tateti, la desgracia es para mí.
(Riff)
Tuyu, tuyu, happy birthday tuyu
tuyu, tuyu, happy birthday tuyu
(Desgraciado!)
Iombo Iombo Iep Iep Ap Ap Bersuit Vergarabat..
...
Bersuit Vergarabaaaat!!
Soy militante del apagón, no tengo pila,
la ignorancia es mi profesión, es mi saliva,
es mi vida una composición toda corrida,
que destaca la equivocación y a las mentiras.
El que juega con la realidad es un suicida,
que dialoga con una pared toda la vida.
Tengo veintiocho y alejado estoy pero en la mía.
Con Bersuit para festejar el más loco
(Riff)
Tuyu, tuyu, happy birthday tuyu
tuyu, tuyu, happy birthday tuyu
Tuyu, tuyu, happy birthday tuyu
tuyu, tuyu, happy birthday tuyu
Riff:
Riff 2:




[Tuyu chords][Tuyu cifra]
© LaCuerda.net · aviso legal · privacidad · es · en · pt · contacto
DINAMICO