Tablatura para Guitarra de Bersuit Vergarabat: Yo tomo
Conexión · Inscripción
Letras y Acordes
Pantalla Completa
Imprimir
Versión Texto
Añadir Favorito
Otras Versiones

Mostrar Diagramas
Desfile Automático
Manipular Acordes
Formato del Texto


Bersuit Vergarabat
Yo tomo(TAB)
calidad:
bers0153
AUTOR: Gustavo Cordera, Pepe Céspedes, Carlos Martin, Oscar Righi, Juan Subirá, Alberto
ALBUM: Libertinaje
Enviado por Jorge
e|----------------------------------|
B|----------------------------------|
G|----------------------------------|
D|-------7-7-7-------7-7-7-----5--7-|
A|-7-7-7-5-5-5-7-7-7-5-5-5--7--3--5-|
E|-5-5-5-------5-5-5--------5-------|
                                         x2
e|----------------------------------|
B|----------------------------------|
G|----------------------------------|
D|-------7-7-7-------7-7-7-----7--9-|
A|-7-7-7-5-5-5-7-7-7-5-5-5--7--5--7-|
E|-5-5-5-------5-5-5--------5-------|



e|-20-19-17-20-19-17-20-19-17-20-19-17-20-19-17----13^-|----13-12----|
B|----------------------------------------------17-----|-17-------15-|
G|-----------------------------------------------------|-------------|
D|-----------------------------------------------------|-------------|
A|-----------------------------------------------------|-------------|
E|-----------------------------------------------------|-------------|

e|-19-------19-------19-------19----12-19-16----20-19^-|-17-19-20^-|
B|----21-17----21-17----21-17----21----------17--------|-----------|
G|-----------------------------------------------------|-----------|
D|-----------------------------------------------------|-----------|
A|-----------------------------------------------------|-----------|
E|-----------------------------------------------------|-----------|

e|-20-19-17-20-19-17-20-19-17-20-19-17-20-19-17-20-21^-|-20-19-20-21^-|
B|-----------------------------------------------------|--------------|
G|-----------------------------------------------------|--------------|
D|-----------------------------------------------------|--------------|
A|-----------------------------------------------------|--------------|
E|-----------------------------------------------------|--------------|

e|-22-21-20-21-20-19-20-19-17-19-17----17^-|----13-12^-|
A|----------------------------------21-----|-17--------|
G|-----------------------------------------|-----------|
D|-----------------------------------------|-----------|
A|-----------------------------------------|-----------|
E|-----------------------------------------|-----------|

Am Quien sos, cómo sos, cuando venís,
Dm cuando llegaste, cuando te vas
E Am E por que te fuiste, quien se cagó (¡no fui yo!)
Am Que hora es, que vamos a comer,
Dm por que me miras, que te debo yo,
E Am E deja ese salame, llevate este jamón
Am E Tomo para no enamorarme
E Am me enamoro para no tomar
Am E tomo para no enamorarme
M Am me enamoro para no tomar
Am Por qué no te morís, por que no te matas
Dm de que te reís, no se por que lloras
E Am E quien te vendió esa cara, por que la compre yo [¡Oooh!]
Am No se si me querés, no se si me engañas,
Dm no se si volveré, no se si volverás
E Am E ¿'tá todo bien? ¿o está todo mal?
Am E Tomo para no enamorarme
E Am me enamoro para no tomar
Am E tomo para no enamorarme
M Am me enamoro para no tomar Solo: e|-5-5-7-8--|-5-5-7-8--|-7-7-8--10-|-7-7-8--10-| B|-7-7-9-10-|-7-7-9-10-|-9-9-10-12-|-9-9-10-12-| G|----------|----------|-----------|-----------| D|----------|----------|-----------|-----------| A|----------|----------|-----------|-----------| E|----------|----------|-----------|-----------| e|-7-7-7-7-10-10-10-8--7-8--7-5-4-| B|-9-9-9-9-12-12-12-10-9-10-8-6-5-| G|--------------------------------| D|--------------------------------| A|--------------------------------| E|--------------------------------| e|---|-----0---0---|-----0---0---|-----1---1---|------1---1-1-----| B|---|---1---1-----|---1---1-----|---3---3-----|---3----3-----5---| G|-2-|-2---------2-|-2---------2-|-2---------2-|-2--------------8-| D|---|-------------|-------------|-------------|------------------| A|---|-------------|-------------|-------------|------------------| E|---|-------------|-------------|-------------|------------------| e|-0-----|---0---------------0-| B|---4-3-|-3---3-1-------1-3---| G|-------|---------2-2-4-------| D|-------|---------------------| A|-------|---------------------| E|-------|---------------------|
Am Dm mi nena rubia que bello recuerdo
E Am de aquel primer beso, de aquel primer beso y si me prendo en fuego de tan solo pensarlo
Dm Riff reina del valle constitucion e|-22-21-20-21-20-19-20-19-17-19-17----17^-|----13-12^-| A|----------------------------------21-----|-17--------| G|-----------------------------------------|-----------| D|-----------------------------------------|-----------| A|-----------------------------------------|-----------| E|-----------------------------------------|-----------|
Am ¿porque no te dormi? ¿porque no laburas?
Dm yo te mantengo y no te bañas
E Am E o te lavas lo pieses o te los lavo yo (¡oooh!)
Am ¿cuanto tenes? ¿cuanto me das?
Dm ¿cuanto queres? ¿cuanto cobras?
E Am E ¿quien es el boludo? pues el boludo soy yo
Am E Tomo para no enamorarme
E Am me enamoro para no tomar
Am E tomo para no enamorarme
M Am me enamoro para no tomar
Am E Tomo para no enamorarme
E Am me enamoro para no tomar
Am E tomo (tomo-omo) para no enamorarme (arme arme)
M Am me enamoro (solo solo) para no tomar e|----------------------------------| B|----------------------------------| G|----------------------------------| D|-------7-7-7-------7-7-7-----5--7-| A|-7-7-7-5-5-5-7-7-7-5-5-5--7--3--5-| E|-5-5-5-------5-5-5--------5-------| x2 e|----------------------------------| |------| B|----------------------------------| |------| G|----------------------------------| |------| D|-------7-7-7-------7-7-7-----7--9-| |------| A|-7-7-7-5-5-5-7-7-7-5-5-5--7--5--7-| |-7777-| E|-5-5-5-------5-5-5--------5------- |-5555-|
Este fichero es trabajo propio de su transcriptor y representa su interpretación personal de la canción. El material contenido en esta página es
para exclusivo uso privado, por lo que se prohibe su reproducción o retransmisión, así como su uso para fines comerciales.
© LaCuerda.net · Aviso Legal · Privacidad