Acordes de Guitarra » B »Bersuit Vergarabat » No seas parca (Tab)

No seas parca
Bersuit Vergarabat

  • Letra y Acordes
       LAm                    MIm 
    la parca estubo cerca me miraba con cariño
       DO                      SI7 
    asomo por la ventana y sonrio
        LAm                      MIm
    husmeaba la carnada aunque nunca toco nada
       DO                       SI7
    despues sin saludar se las tomo
         LAm                     MIm              LAm 
    supongamos que pezca no le parecio muy fresca
                                 SI7
    o algun otro negocio la espanto.
    
          LAm                       MIm        
    pero cuando anda agreta va y te hace la vendeta
             DO  SI7                   MIm 
    es que detesta al displiscente vividor
        LAm   RE7                    
    porque pinto un rumor oscuro por aca
    SOL                     D/F#          MIm
    
  • Letra y Acordes
    Am  |Em  |C B7|Em  |          |---0-----0---0--|   cuatro
                                  |-2-----3-------3|   veces
        Am                     |----------------|
    La parca estuvo cerca         |-0-----1--------|
        Em
    me miraba con cariño
        C
    asomó por la ventana
          B7
    y sonrió.
    
       Am
    Husmeaba la carnada
            Em
    aunque nunca tocó nada
    C#0    Cmaj7     
      después sin saludar
    B7
    se las tomó.
    
    
  • Letra y Acordes
    LAm  ex---l---l---l---
         bx-x-l---l---l---
         gx---l-x-l---l---
         dx---l-x-l---l---
       º ax---l---l---l---
       X ex---l---l---l---
    
    MIm  ex---l---l---l---
         bx---l---l---l---
         gx---l---l---l---
         dx---l-x-l---l---
         ax---l-x-l---l---
       º ex---l---l---l---
    
    DO7  ex---l---l---l---
         bx-x-l---l---l---
         gx---l---l-x-l---
         dx---l-x-l---l---
       º ax---l---l-x-l---
       X ex---l---l---l---
    
  • Tablatura
    |------------------------
    |-----0-----0------------
    |------------------------
    |-2-----3-----3----------
    |---------3-----3--------
    |---0--------------------
    
    
    Solo de armónica 
    
      Am        Em          C                    B7sus4-B7
    |----------------------------------------------
    |-0-3-1----------------------------------------
    |-----------0-4-2-----0-0---0-----0----0-------
    |-------4---------1-----------4-2--------4-2-4-
    |----------------------------------------------
    |----------------------------------------------
    
      Am        Em         C        B7        Em
    |----------------------------------------------
    
  • Tablatura
    Am: LAm
    Em: MIm
    Em7: MIm7
    C: DO
    B: SI
    D: RE
    D7: RE7
    
    Arpegio Intro:
    
    |-----------------|-----------------|
    |-----0-----0-----|-----0-----0-----|
    |-----------------|-----------------|
    |-2-----3-----3---|-2-----3-----3---|
    |---------3-----3-|---------3-----3-|
    |---0-------------|---0-------------|
    
    |-----------------|-----------------|
    |-----0-----0-----|----0-----0------|
    |-----------------|-----------------|
    
  • +
    ¡Colabora con nosotros!
    Envíanos tu versión de esta canción

Letra de No seas parca
la parca estubo cerca me miraba con cariño
asomo por la ventana y sonrio
husmeaba la carnada aunque nunca toco nada
despues sin saludar se las tomo
supongamos que pezca no le parecio muy fresca
o algun otro negocio la espanto.
pero cuando anda agreta va y te hace la vendeta
es que detesta al displiscente vividor
porque pinto un rumor oscuro por aca
justo al lugar al que tanto deseaba llegar
ella es mi infalible compañera
en esta carrera que siempre nos toca perder.
lam/mim/Do/Si7/mim
repite primera parte:
la parca estubo cerca y me dijo muy bajito
esperame un tiempo mas ya estoy con vos
si bien pide presas viejas hasta ella la bandeja
aveces la sorprende con horror
no reces pidiendo auxilio y bancate el mal delirio
si este beso ponsoñoso te alcanzo.
como todo mujerzuela esta parca me desvela
la muy turra es atractiva de verdad
porque pinto un clamor divino por aca justo al lugar
al que tanto temia llegar.
ella es mi infalible compañera
en esta carrera que siempre nos toca perder
en esta carrera que siempre nos toca perder
en esta carrera que siempre...
lam/mim/Do/Si7/mim
porqueeeeeeeeeeeeeee!!!!!!!!!!!!!
lam/mim Do/Si7/mim
porqueeeeeeeeeeeeeee!!!!!!!!!!!!!aaahhhaahhhh
TEMOOOONN DE LA BERSUIT!!!
**Diego Medina**



© LaCuerda.net · aviso legal · privacidad · contacto