Acordes de Guitarra » B »Bersuit Vergarabat » Madre hay una sola (Tab)

Madre hay una sola
Bersuit Vergarabat

Letras, Acordes y Tabs para Guitarra, Bajo y Ukulele

  • Introducción: SOL RE MIm DO
    
    e|--10-10-8-8-7-7-----------------------8-8-7-7-5-5-----------------------|
    b|----------------10-10-8-8-7-7---------------------8-8-7-7-5-5-----------|
    g|------------------------------9-9-7-7-------------------------7-7-5-5---|
    a|------------------------------------------------------------------------|
    d|------------------------------------------------------------------------|
    E|------------------------------------------------------------------------|
    
    e|--7-7-5-5-3-3------------------------5-5-3-3-2-2-----------------------||
    b|--------------7-7-5-5-3-3-7----------------------5-5-3-3---------------||
    g|-----------------------------5-5-4-4---------------------5-5-4-4-2-2-0-||
    d|-----------------------------------------------------------------------||
    a|-----------------------------------------------------------------------||
    E|-----------------------------------------------------------------------||
    
    
    
    
                SOL                  RE
    
  •  G                  D
    Ciudades gigantes, enormes cloacas
           Em                        C
     viajan torrentes hacia el mar, de un amor que huele mal.
            G                    D
    Como anunciándole al cielo, nuestro destino
           Em                              C
    Se ven las marcas de la muerte, por las ventanas del avión.
    
           G                             D
    El progreso fue un fracaso, fue un suicidio
           Am                         C
    La ansiada prosperidad, fue el más pesado vagón.
           G                         D
    juicio final? Si ya estamos desechos
            Am                      C
    Una explosión natural, hará una gran selección.
    
    
    ESTRIBILLO:
    
  •      SOL            RE/FA#
    Ciudades gigantes, enormes cloacas
                MIm                              DO/SOL
    Viajan torrentes hacia el mar, de un amor que huele mal.
                SOL                  RE/FA#
    Como anunciándole al cielo, nuestro destino
                MIm                              DO/SOL
    Se ven las marcas de la muerte, por las ventanas del avión.
    
                SOL                  RE/FA#
    El progreso fue un fracaso, fue un suicidio
                LAm                  DO/SOL
    La ansiada prosperidad, fue el más pesado vagón.
                SOL                  RE/FA#
    Para qué un juicio final? Si ya estamos desechos
                LAm                  DO/SOL
    Una explosión natural, hará una gran selección.
    
    
    
    
  • TENIA SOLO DOS ERRORES A MI GUSTO...ASIQUE LA MODIFIQUE...CHAU
    INTRO:
    
    |-10-8-7------------8-7------------7---------------------------------|
    |--------10-8-7---------10-8-7-------10-8-7---------10-8-7-----------|
    |---------------9-7-----------9-7-----------9-7------------9-7-------|
    |--------------------------------10-------------10-9-----------10-9-7|
    |--------------------------------------------------------------------|
    |--------------------------------------------------------------------|
    
    Y EL FINAL ES IGUAL QUE LA INTRO:
    
    
    |-10-8-7------------8-7------------7---------------------------------|
    |--------10-8-7---------10-8-7-------10-8-7---------10-8-7-----------|
    |---------------9-7-----------9-7-------------9-7------------9-7-------|
    |--------------------------------10--------------10-9-----------10-9-7|
    |--------------------------------------------------------------------|
    |--------------------------------------------------------------------|
    
    
    RODRIII
  • +
    ¡Colabora con nosotros!
    Envíanos tu versión de esta canción

Letra de Madre hay una sola
Ciudades gigantes, enormes cloacas
Viajan torrentes hacia el mar, de un amor que huele mal.
Como anunciándole al cielo, nuestro destino
Se ven las marcas de la muerte, por las ventanas del avión.
El progreso fue un fracaso, fue un suicidio
La ansiada prosperidad, fue el más pesado vagón.
Para qué un juicio final? Si ya estamos desechos
Una explosión natural, hará una gran selección.
ESTRIBILLO:
Yo te agradezco, porque aquí estoy
Vos sos mi única madre, con alma y vida yo venero tu jardín.
Te agradezco, aunque me voy
Avergonzado por ser parte de la especie
Que hoy te viola en un patético festín.
Y aun no te libraste de nosotros, nuestra desidia
Fue por tenerte regalada, el creer que no vales nada.
Estas pariendo hijos ciegos, estas cansada
Aunque tus lágrimas saladas, nos pueden ahogar si quieres.
Los pocos que te aman, no tiene fuerzas
Como reliquias se pasean, solo paquetes de turismo son.
No hay mas amigos del sol, no hay mas ofrendas
Yo te agradezco... (x2)
Bueno... ahí lo tienen, este es un tema de Bersuit del
ultimo CD “Testosterona”, espero que lo disfruten, porque esta muy bueno.
Y quiero aclara que este tema lo saco un amigo mío que se llama Agustín Ganem.
Aguante la BERSUIT!!!
**************************************BERSUITEROS.COM**************************




[Madre hay una sola chords][Madre hay una sola cifra]
© LaCuerda.net · aviso legal · privacidad · es · en · pt · contacto