Acordes de Guitarra » B »Bersuit Vergarabat » La argentinidad al palo (Tab)

La argentinidad al palo
Bersuit Vergarabat

Letras, Acordes y Tabs para Guitarra, Bajo y Ukulele

  • e--------------------------|--------------------------| |
    B--------------------------|--------------------------| |
    G--------------------------|--------------------------| |
    D--------------------------|--------------------------| |
    A----0-2-2-0-2-2-0-2-0-----|----0-2-2-0-2-2-0-2-0-----| |
    E--2-------------------2---|--2-------------------3---| |
                                                            | (x2)
    e-----------------------|-----------------------------| |
    B-----------------------|-----------------------------| |
    G-----------------------|-----------------------------| |
    D-----------------------|-----------------------------| |
    A----0-2-2-0-2-2-0-2-0-1|--1-1-1-1-1--4-4-4-5-4-2-----| |
    E--3--------------------|-----------------------------| |
    
    Verso 1:
    
    Bm
    La calle mas larga,
    F#
    El rio mas ancho,
    
  •     Bm 
    La calle más larga,
        F#m
    el río más ancho,
          G                              A
    las minas más lindas del mundo...
         Bm
    El dulce de leche, 
         F#m
    el gran colectivo,
         G                          A
    alpargatas, soda y alfajores...
    
    1.
    Las huellas digitales, 
    los dibujos animados,
    las jeringas descartables, 
    LA birome...
    Bm     
    La transfusión sanguínea,
    
  •     SIm                 RE                 SOL                  FA#
    La calle mas larga, el rio mas ancho, las minas mas lindas del mundo...
    El dulce de leche, el gran colectivo, alpargatas, soda y alfajores...
    Las huellas digitales, los dibujos animados, la jeringa descartable la birome...
    La tranfusion sanguínea, el 6 a 0 a Perú, y muchas otras cosas mas...
                 SIm    FA# 
    La argentinidad al palo...
    La argentinidad al palo...
      SIm               RE                   SOL             FA#
    Gigantes como el Obelisco, campeones de fútbol, boxeo y hockey.
    Locatti, Barredo, Monzon y Cordera Tambien matan por amor.
    Tanos, gallegos, judios, criollos, polacos, indios, negros, cabecitas...
    pero con pedigree frances.
    Somos de un lugar santo y profano a la vez, mixtura de alta combustión.
    
    ESTRIBILLO
                 SIm   FA#
    La argentinidad al palo...
    la argentinidad al palo... 
    la argentinidad al palo...
    
  • e|-------------------------------------------------------|
    B|-------------------------------------------------------|
    G|-------------------------------------------------------|
    D|-------------------------------------------------------|
    A|---0-2-2-0-2-2-0-2-0-------0-2-2-0-2-2-0-2-0-----------|
    E|-2-------------------2---2-------------------3---------|
    
    e|-------------------------------------------------------|
    B|-------------------------------------------------------|
    G|-------------------------------------------------------|
    D|-------------------------------------------------------|
    A|---0-2-2-0-2-2-0-2-2-1---1-1-1-1-1-4-4-4-5-4-2---------|
    E|-3-----------------------------------------------------|
    
    e|----------------------------------------------------------------------|
    B|----------------------------------------------------------------------|
    G|----------------------------------------------------------------------|
    D|----------------------------------------------------------------------|
    A|---0-2-2-0-2-2-0-2-0------0-2-2-0-2-2-0-2-0------0-2-2-0-2-2-0-2-2-1~~|
    E|-2-------------------2--2-------------------3--3----------------------|
    
  • +
    ¡Colabora con nosotros!
    Envíanos tu versión de esta canción

Letra de La argentinidad al palo
| (x2)
Verso 1:
La calle mas larga,
El rio mas ancho,
Las minas mas lindas del mundo,
El dulce de leche,
El gran colectivo,
Alpargata soda y alfajores...
Los dibujos animados,
Las jeringas descartables,
La transfunción sanguienea,
El 6 a 0 a peru,
Y muhcas otras cosas mas...
Estribillo:
La argentinidad, Al palo...
La argentinidad, Al palo...
Verso 2:
Gigantes como el obelisco,
campeones de fútbol
Boxeo y hockey.
Locatti, barreda,
Monzón y cordera
También, Matan por amor...
Tanos, gallegos, judios,
Criollos, polacos, indios negros
Cabecitas. Pero con pedigree frances...
Somos de un lugar,
Profano a la vez,
Mistura de alta combustion...
Estribillo...
Verso 3: (deja de sonar una parte la guitarra)
Diseminados y en franca expansión
Hoy nos espera el mundo entero
No es para menos la coronación
Brota el encanto del suelo argento
Vamo´...vamo´...
Y no me vengan con cuentos chinos
Que el che, gardel o maradona
Son los number one
Como lo soy yo
Y argentino...
Gracias dios!!!
Estribillo:
La argentinidad... Al palo
La argentinidad... Al palo
La argentinidad... Al palo
La argentinidad... Al palo
Diarieros: (Deja de sonar la guitarra)
También Videla y el mundial 78
Spadone y la leche adulterada
Manzano se hizo la cirugía del orto
Descuartizan vacas en el norte.
Y siguen los nariguetazos en el Congreso
Galtieri y 'los estamos esperando'.
Más desnutridos
En el 'Granero del mundo'.
Cayó la Fundación Padre Bufarra.
Alfonsín con 'la casa está en orden'
'El que apuesta al dólar pierde',
dijo el Ministro.
También Menem y su primer inmundo
Cavallo y sus lágrimas de cocodrillo.
Cinco presidentes en una semana.
Encontraron al muñeco de Yabrán
con un tiro en la cabeza.
De La Rúa con su tímida boludez...
Pero... ¿qué me vienen a coger
a mí con la pija muerta?
¡Yo la tengo mucho mas grande que vos!
A los boludos como vos me los cojo
de parado.
Cuando vos fuiste,
Yo ya fui y vine... ¡Cuarenta veces!
¿Cómo no querés que los cague,
si son unos boludos de mierda?
¡Son todos una manga de garcas!
¡Este país está lleno de ladrones!
¿Yo? ¡¡¡ARGENTINO!!!
Como el tiro en el corazón
DE Favaloro
Del éxtasis a la agonía
oscila nuestro historial.
Podemos ser lo mejor, o también lo peor,
con la misma facilidad.
(Estribillo)
¡Al palo!¡Al palo!¡Al palo!
Termina con punteo inicial, sobre base de verso.




[La argentinidad al palo chords][La argentinidad al palo cifra]
© LaCuerda.net · aviso legal · privacidad · es · en · pt · contacto