Acordes de Guitarra » B »La Beriso » Buena Suerte (Tab)

Buena Suerte
La Beriso

Letras, Notas, Punteos, Tablaturas y Acordes de Guitarra (Tabs & Chords)

  • Letra y Acordes
    [INTRO] E-G#-A x4 (A LA 2da y 3era vez hace esto)
    
    
        E     G#    A
    e|-----0----4-----55----5-7-9-7-5-|
    B|----0------4----55--------------|
    G|-0h1---4/5---5/6---5/6----9-7-6-|
    D|--------------------------------|
    A|--------------------------------|
    E|--------------------------------|
    
    (y a la 4ta esto)
    
        E     G#    A
    e|-----0----4-----5----7----9-999-7-5-|
    B|----0------4----5-------------------|
    G|-0h1---4/5---5/6--6/7--7/9--999-7-6-|
    D|------------------------------------|
    A|------------------------------------|
    E|------------------------------------|
    
  • +
    ¡Colabora con nosotros!
    Envíanos tu versión de esta canción

Letra de Buena Suerte
(y a la 4ta esto)
[VERSO] (Igual que la intro)
Su sonrisa me atrapó
algo se paralizó
Su vestido se iluminó
y la luna se oscureció
Escuchamos la mejor canción
susurrando me la cantó
Con sus pies me acarició
con su boca se despidió
[ESTRIBILLO]
Que tengas buena suerte amor
que te trate bien tu mejor sol
Tarde la vida nos cruzó
y solo canciones nos dejó
[VERSO]
Por su espalda quiero correr hoy
en su boca quiero ahogarme yo
Desnudarla fue el mejor sabor
y de todo algo nos quedó
[ESTRIBILLO]
Que tengas buena suerte amor
que te trate bien tu mejor sol
Tarde la vida nos presentó
y solo canciones nos dejó
[ESTRIBILLO]
Vamos que tengas buena suerte amor
que te trate bien tu mejor sol
Tarde la vida nos presentó
y solo canciones nos dejó
Vamos que tengas buena suerte amor
que te trate bien tu mejor sol
Tarde la vida nos presentó
y solo canciones nos dejó
[Termina igual que la intro]
x cualkier cosa me mandan mail a
lalos_boca20@hotmail.com
Aguante el Rock n' roll y nada mas,
es algo que los chetos no pueden entender!



© LaCuerda.net · Aviso Legal · Privacidad