Acordes de Guitarra » B »Benny More » Fiebre de tí (Tab)

Fiebre de tí
Benny More

Letras, Acordes y Tabs para Guitarra, Bajo y Ukulele

  • Em7, Em6, Dm7, Dm6, F#m7b5, Fm7b5, Em7, Em6
                     B7
    Este amor tan fatal
                    Em
    Que atenaza mi mente
                   E#79
    Esta fiebre de ti
                      Am6
    Estas ansias vehementes
                      F#m7b5, B7
    Este calor de infierno
                       Em6
    Que me abraza la frente
                  F#m7b5, B7
    Perdonandote todo
                    Em
    Tu pasado y presente
    
    (estribillo)
                   D7
    
  • parte 1
    
      00:27
    G |---------------||------------------||------------------||-----------|
    D |--------10-----||---9-----9--------||------9-9------9--||-----------|
    A |----9-------9--||------9-----9---6-||--7---------------||-------7---|
    E |---------------||------------------||------------7-----||-----------|
    
    
     |-----------7--10--||---9--9--------9-||---------9-----||--9--------9--|
     |-------9----------||------------9----||----7----------||--------------|
     |----7-------------||---------7-------||---------------||-------7------|
     |------------------||-----------------||---------------||--------------|
    
    
                            Parte 2
     |-----------9------||---------------||-----------------||--------------|
     |----7-------------||--7-----7---7--||--7---9----------||------9---9---|
     |---------------7--||---------------||--------------9--||--7-----------|
     |------------------||---------------||----------7------||--------------|
    
    
    
     |------------------||-------------||--------------||-------
  • +
    ¡Colabora con nosotros!
    Envíanos tu versión de esta canción

Letra de Fiebre de tí
Este amor tan fatal
Que atenaza mi mente
Esta fiebre de ti
Estas ansias vehementes
Este calor de infierno
Que me abraza la frente
Perdonandote todo
Tu pasado y presente
(estribillo)
Pero no puede ser, no
Ir hacía ti sería
Dejar en el camino de mi vida
Los restos de mi hombría
Arráncame Dios mio
Esta idea tan morbosa
De desearla siempre
Sobre todas las cosas.
Pero no puede ser...... (estribillo y FIN)

Video de Fiebre de tí
[]




[Fiebre de tí chords][Fiebre de tí cifra]
© LaCuerda.net · aviso legal · privacidad · es · en · pt · contacto